Jay R - Bakit Pa Ba Chords & Tabs

 

Bakit Pa Ba Chords & Tabs

Jay R Chords & Tabs

Version: 2 Type: Tab 0 ratings
1 star 2 stars 3 stars 4 stars 5 stars
comments

Bakit Pa Ba Tab

   
___________________________________________________________
***********************************************************
Title: Bakit Pa Ba (acoustic)
Artist: Jay R
Tabbed by: Reynaldo R. Ramos
E-mail: rey_rrr20@yahoo.com
Date: July 6, 2004
Tuning: Standard Tuning
__________________________________________________________
**********************************************************

I dedicate this Tab to my friend CATCAT, favorite nya itong song 
na ito kaya favorite ko na rin..keep on practice kc medio may
mahihirap na part d2...

Intro: F—-Gmpause, Am-Bb-
       F—-Gmpause, Dm7--C--Bb--F


Guitar 1:
  F         Gm  Am        Bb    F         Gm7 
|-------1-------------------------------1-------|
|------------------8-6-5---6--------------------|
|-----2---2--3—3/5-----------7--------2---2-3---|
|---3--------------------8-----8----3-----------|
|-----------------------------------------------|
|-1----------3--------------------1---------3---|

Guitar 1:
  Dm7      C        Bb        F  
|-------1------------------------------------|
|-----1----------1--------3------------------|
|---2----------0--------3-----------2--------|
|-0----------2--------3-----------3----------|
|----------3--------1-----------3------------|
|-----------------------------1--------------|
Guitar 2:
  Dm7      C        Bb        F
|-----------------------------------1----------|
|-------1---------------------------1----------|
|---2-----------------2-3-2-----2---2----------|
|-0---0------3/5-5------------3-----3----------|
|----------3--------1---------------3----------|
|-----------------------------------1----------|

Stanza:
I.
 Nagpapaalam ka.. dahil nasaktan kita...
 F               Dm7                    
|-----------------------1------1-------|
|-------1------1------1------1---------|
|-----2------2------2------2-----------|
|---3------3------0--------------------|
|--------------------------------------|
|-1------------------------------------|
 






noo'y di nakita     ako
  Bb      Gm7       C       Bb/D     Em7 
|--------------------------------------------|
|-------3--------3------3----------------8---|
|-----3--------3------5---5-----5------5-----|
|---3--------3----------------7---7----------|
|-1-----------------3-------5--------7-------|
|----------3---------------------------------|

II.
 Ngayo'y alam..                 sayo'y nakasala
  F                              Dm7 
|--------------------------1-3/5-------1-----1-----0-|
|-------1------1---------1-----------1-----1-----1---|
|-----2------2---------2-----------2-----2-----2-----|
|---3------3---------3-----------0-------------------|
|------------------3---------------------------------|
|-1--------------1-----------------------------------|
 sana..  ako'y  ...na
  Bb      Gm7      C       Dm7      Em7 
|-------------6-5-------------------1--------3--|
|-------3---6-----6-8-------3-----1--------1----|
|-----3-------------------5-----2--------0------|
|---3-----3-------------5-----0--------2--------|
|-1-------------------3-------------------------|
|-----------------------------------------------|

Refrain: Cm-Am-Gm-Bbm-F-Dm-Gm-C

Guitar 1:
 Araw..   lumuluha.. ay      nagmamakaawa..
  Cm        Am       Gm       Bbm  
|-----------------0------------------1--|
|-------4-------1----------3-------2----|
|-----5-------2----------3-------3------|
|---5------------------5----------------|
|-3---------0-----------------1---------|
|--------------------3------------------|
noo'y..   narinig.. mo
  F        Dm       Gm         C7sus
|----------------1----------1--3--------|
|-------1------3----------1----6--------|
|-----2------2----------3------3--------|
|---3------0----------0--------5--------|
|------------------------------3--------|
|-1-----------------3-------------------|

Guitar 2:
  Cm       Am              Gm      Bbm
|----------------5-----5-6-------6-----------------|
|-------4------5-----5---------3-------8-6---------|
|-----5------5---------------3-------6-----8-6-5---|
|---5------7-------7-------5-------8---------------|
|-3------------------------------------------------|
|--------------------------------------------------|


  F          Dm       Gm          C7sus
|-----------------------------1---3-------|
|---------10-------6--------1-----6-------|
|------10--------7--------3-------3-------|
|---10---------7--------0---------5-------|
|-8----------5--------------------3-------|
|---------------------3-------------------|

Chorus:  F-Gm-Am-A-Dm-C-Bb-
         F-Gm-Am-A-Dm-C-G7-Gm-C
[ Tab from: http://www.guitartabs.cc/tabs/j/jay_r/bakit_pa_ba_tab_ver_2.html ]
Bakit..   pa ba..   nagawa..
  F        Gm       Am   
|-------1----------------------------|
|----------------6--------1----------|
|-----2--------3--------2------------|
|---3--------5--------2-----3--------|
|-------------------0----------------|
|-1--------3-------------------------|
 nasaktan..tulad mo..
  A              Dm 
|---------3-----1-------1----------|
|-------2---2---------3---3--------|
|-----2-------2-----2-------2------|
|---2-------------0-----------0----|
|-0--------------------------------|
|----------------------------------|
labis na... nagmamahal..
  Csus            Bb
|-------1---------------1--------1---3-|
|-----1---1--------------------1-------|
|---0-------0----------3------------3---|
|-------------2------3-------3---------|
|-3-------------3-1-------1------------|
|--------------------------------------|
di .. napansin..na wala
  F        Gm       Am   
|-------1----------------------------|
|----------------6--------1----------|
|-----2--------3--------2------------|
|---3--------5--------2-----3--------|
|-------------------0----------------|
|-1--------3-------------------------|
katulad ng..ibig mo
  A              Dm 
|---------3-----1-------1---------|
|-------2---2---------3---3-------|
|-----2-------2-----2-------2-----|
|---2-------------0-----------0---|
|-0-------------------------------|
|---------------------------------|






        sa akin'..
  Csus            G7
|-------1----------------------------------|
|-----1---1---------------3-----3----------|
|---0-------0-----------4-----4-----4------|
|-------------2-------3--------------------|
|-3-------------3---5----------------------|
|-----------------3---------------3--------|
           ako sana       muli   ay patawarin...
            Gm             C7sus 
|--------------------------3-------|
|-------6---------6--------6-------|
|-----4---------3----------3-------|
|-------------5------------5-------|
|---5----------------------3-------|
|-3---------3----------------------|

Interlude:
  F           Fsus   
|-------1-----1---------6-----5-----4---3-------------|
|-------------1-----------6-----6-6---4-----4-3-------|
|-----2---2---3—----3/5-----5-------------3-----3-----|
|---3---------3-----------------------------------3---|
|-------------3-------------------------------------1-|
|-1-----------1---------------------------------------|


Importantà>>Yung chords ng stanza,refrain at chorus pare 
pareho lang nagiiba lang ng pattern ng plucking, hammer or 
slide(mga notations), anyway its up to you kung gagayahin 
nyo parin yung nasa song pero for simplicity I advice to 
follow the previous pattern and notations for stanza, refrain and chorus...

Stanza 2: (do stanza pattern)

Repeat Refrain:

Repeat Chorus:

Bridge:
  F            Fsus            F          Fsus
|---------1----------1--------------------------------1-|
|-----1------------1---1-----------1---3----1---1---1---|
|---2---2--------3-------3-------2---2--------3---3-----|
|-3------------3-----------3---3----------3-------------|
|-------------------------------------------------------|
|-------------------------------------------------------|
                  Dooo do do...
  F               Fsus             F
|--------1---------------1----------------------|
|----------1---------------1-------------1------|
|-----2------2--------3-------3--------2--------|
|---3-----------3---3-----------3----3----------|
|-----------------------------------------------|
|-1---------------1----------------1------------|


  Gm   Am                   Bb  
|---------------------------------------------|
|---------------------------------------------|
|-3----5--------8-7-----5-------10-9-----7----|
|---5----7----7-------7---7---8--------8---8--|
|---------------------------------------------|
|-3----5----5-------5-------6--------6--------|
  C7sus            C#M7 
|-----3-----------------------------------4--------|
|-------6-----6------------6------------6---6------|
|----------------------5-----5--------5-------5----|
|---5-------5---5----6---6-----6----6-----------6--|
|-3-------3--------4--------------4----------------|
|--------------------------------------------------|
 C#
|---------------------------|
|-6----6-6---6-6------------|
|-6----6-6---6-6------------|
|-6----6-6---6-6------------|
|-4----4-4---4-4------------|
|---------------------------|

Repeat Chorus: (one step higher F#)

|-2----2-x-------4-----4-x-------6------6-x---|
|-2----2-x-------4-----4-x-------6------6-x---|
|-3----3-x-------4-----4-x-------6------6-x---|
|-4----4-x-------6-----6-x-------8------8-x---|
|-4----4-x-------6-----6-x-------8------8-x---|
|-2----2-x-------4-----4-x-------6------6-x---|

|-6-------------------6----------------4------|
|---6---------------7---7------------6---6----|
|-----7-----3-----8-------8--------6-------6--|
|-8-------3-----8-----------8----6-----------6|
|-------5-----6----------------4--------------|
|---------------------------------------------|

|---------2---------------2--------------|
|-------4---4-----------4---4------------|
|-----4-------4-------4-------4----------|
|---4-----------4---4-----------4--------|
|-2---------------2----------------------|
|----------------------------------------|

|-2----2-x-------4-----4-x-------6------6-x---|
|-2----2-x-------4-----4-x-------6------6-x---|
|-3----3-x-------4-----4-x-------6------6-x---|
|-4----4-x-------6-----6-x-------8------8-x---|
|-4----4-x-------6-----6-x-------8------8-x---|
|-2----2-x-------4-----4-x-------6------6-x---|

|-6-------------------6----------------4------|
|---6---------------7---7------------6---6----|
|-----7-----3-----8-------8--------6-------6--|
|-8-------3-----8-----------8----6-----------6|
|-------5-----6----------------4--------------|
|---------------------------------------------|

|-------------------------------------------|
|-------4-----------------7----------7------|
|-----5-----------------4--------4-----4----|
|----------6/8-6------6--------6---6-----6--|
|---6------------------------4--------------|
|-4-----------------4-----------------------|

|----------4-------------------|
|--------7---7-----------------|
|-----4--------4---------------|
|---6------------6-------------|
|-4----------------------------|
|------------------------------|

Outro:

|----2-------2-------2--------2--------2-|
|------2---2-------2---2------2--------2-|
|--3-----3-------3-------3----3-3------3-|
|--------------4-----------4--4---4-6--4-|
|----------------------------------------|
|----------------------------------------|
Comments