Jay R - Bakit Pa Ba Chords & Tabs

 

Bakit Pa Ba Chords & Tabs

Jay R Chords & Tabs

Version: 1 Type: Tab 0 ratings
1 star 2 stars 3 stars 4 stars 5 stars
comments

Bakit Pa Ba Tab

   
INTRO:
[ Tab from: http://www.guitartabs.cc/tabs/j/jay_r/bakit_pa_ba_tab.html ]
  F         Gm            Am       A/C#        Dm(9)    C(6)
------1---------------- -----1-----6--5--3-- --1--0--1--0----------
---------1------6---3-- --1-----3----------- --------------1-------
--2---------3---------- -------------------- -----------------2----
----------------------- -------------------- --0-------------------
----------------------- --0--------4-------- -----------3----------
--1---------3---------- -------------------- ----------------------
                                 VERSE:
                                  Nagpapaalam...  da-
  Bb     Bbm      Csus   C         F      /E
--------------- --1------0------ ---------------3------
--3------2----- --0------1------ --1---------1---------
--3------3----- --0------0------ --2------2------------
--------------- ---------------- ----------------------
--1------1----- --3------3------ ----------------------
--------------- ---------------- --1------0------------
  hil nasaktan...      noo'y di makitang  mali  ako.             Nga-
  Dm                    Gm          F             Csus        C 
--1------------------ -------------------------- --------1----0--1--3--
--3---------------3-- --------3-----------1----- --------0-------------
---------------2----- -----3-----3-----2-----2-- -----0----------------
--0---------0-------- -------------------------- ----------------------
--------------------- -------------------------- --3----------3--------
--------------------- --3-----------1----------- ----------------------
 yo'y alam...     sayo'y nagkasala          sana muli ako'y mapa-
 F            /E       Dm(9)                   Gm        /F
-------------------- ----------------1--0--- ----------------------
--------1----------- --------3-------------- --------3--------3----
-----2-----------2-- -----2----------------- -----3--------3-------
-------------------- --0-------------0------ ----------------------
-------------------- ----------------------- ----------------------
--1-----------0----- ----------------------- --3---------1---------
                        CHORUS:
 tawad pa.             Araw-araw kang ...       sa akin ay nagmamakaawa
  C          Csus  C      Am          D7             Gm          Bbm
--------0-----1-----0-- --------------------2----- -------------------------
----------------------- --------1-----------1----- --------3------------2---
-----0-----0-----0----- -----2-----2-----2-----2-- -----3-----3------3------
----------------------- --------------0----------- -------------------------
--3-------------------- --0----------------------- --------------1----------
----------------------- -------------------------- --3----------------------
                                                  CHORUS:
 noo'y di narinig pagsamo  mo.                       Bakit pa ba  naga-
  F           Dm             Gm          C           F           Gm
--------------------1----- --------------------0-- -------------------------
--------1--------------3-- --------3-----------1-- --------1-----------3----
-----2-----2-----2-------- -----3-----3-----0----- -----2-----2-----3-----3-
--------------0----------- ----------------------- -------------------------
-------------------------- --------------3-------- -------------------------
--1----------------------- --3-------------------- --1-----------3----------
 wa  nasaktan ko ang isang tulad mo na labis...
 Am          A7/C#          Dm          C             Bb          C
-------------------0----- ------------------------- --------------------0---
-------1-----------2----- --------3-----------1---- --------3-----------1---
----2-----2-----0-----0-- -----2-----2-----0-----0- -----3-----3-----0----0-
------------------------- --0---------------------- ------------------------
-0-----------4----------- --------------3---------- --1-----------3---------
------------------------- ------------------------- ------------------------
 di na pansin       na   walang    katulad ang alay...                 sa a-
  F           Gm            Am          A7/C#        Dm          C
------------------------- ------------------------- ------------------------
--------1-----------3---- --------1-----------2---- -------3-----------1----
-----2-----2-----3-----3- -----2-----2-----0-----0- ----2-----2-----0-----0-
------------------------- ------------------------- -0----------------------
------------------------- --0-----------4---------- -------------3----------
--1-----------3---------- ------------------------- ------------------------
                                                   INTERLUDE: 
 kin...                a-  ko sana mu li ay patawarin...
 G/B          G              Gm          C           F         Gm
--------------------3----- --------------------0-- -----1------------------
--------3-----------3----- --------3-----------1-- ---------1------6---3---
-----0-----0-----0-----0-- -----3-----3-----0----- --2---------3-----------
-------------------------- ----------------------- ------------------------
--2----------------------- --------------3-------- ------------------------
--------------3----------- --3-------------------- --1---------3-----------

 Am           A/C#
------1---3---5---6---5---3---
--1---------------------------
------------------------------
------------------------------
--0-----------4---------------
------------------------------

submitted by:christian
Comments