Jay Chou - Ye Qu Chords & Tabs

 

Ye Qu Chords & Tabs

Jay Chou Chords & Tabs

Version: 1 Type: Tab

Ye Qu Tab

Jay Chou - Ye Qu (Intro Tablature)
Submitted by Bryan Xie and Samantha Mah
email: bryanxie@gmail.com

Standard Tuning

Intro

E|----------------------13-13-13-11-9-11---------------------||
B|-6-8-9-9-9-9--8-13-13------------------9-9-----------------||
G|-----------------------------------------------------------||
D|-----------------------------------------------------------||
A|-----------------------------------------------------------||
E|-----------------------------------------------------------||
[ Tab from: http://www.guitartabs.cc/tabs/j/jay_chou/ye_qu_tab.html ]
E|--9-9-9--9-8--8--------------------------------------------||
B|----------------11-11-9-8-9--9-8---------------------------||
G|-----------------------------------------------------------||
D|-----------------------------------------------------------||
A|-----------------------------------------------------------||
E|-----------------------------------------------------------||

E|----------------------13-13-13-11-9-11---------------------||
B|-6-8-9-9-9-9-8-13-13------------------9-9------------------||
G|-----------------------------------------------------------||
D|-----------------------------------------------------------||
A|-----------------------------------------------------------||
E|-----------------------------------------------------------||

E|--9-9-9--9-8-----------------------------------------------||
B|-------------11-9-8-8-9-6----------------------------------||
G|-----------------------------------------------------------||
D|-----------------------------------------------------------||
A|-----------------------------------------------------------||
E|-----------------------------------------------------------||

Enjoy!

I love Samantha Mah!!!