Jay Chou - Qing Tian Chords & Tabs

 

Qing Tian Chords & Tabs

Jay Chou Chords & Tabs

Version: 2 Type: Chords 0 ratings
1 star 2 stars 3 stars 4 stars 5 stars
comments

Qing Tian Chords

   
Song: Qing Tian
Artist: Jay Chou
Album: Ye Hui Mei

tabbed by: Gabrielle Abanto

this is my first tabs and i'm 100% sure of these tabs..
this is for all you out there who listens to jay chou's music!!
and for all my friends in thailand and in the philippines!!!

INTRO:
       
e|--------------------------------------------------------------------|
B|------3---------3------------3--------3-----3-----------------------|
G|--------0---------0------------0------------------------------------|
D|----0-------0h2----------0------------------------------------------|
A|--2-------3---------------------------------------------------------|
E|--------------------3-------------3------2--------------------------|


e|--------------------------------------------------------------------|
B|------3---------3------------3--------3-----3-------3---------------|
G|--------0---------0------------0------------------------------------|
D|----0-------0h2----------0------------------------------------------|
A|--2-------3---------------------------------------------------------|
E|--------------------3-------------3------2-----2h3------------------|


Em7-C9-G-D....

continue doing intro after the chords... 
gu shi de xiao huang hua.....(continue the intro)
    C9               G             D
....ni hui deng dai hai shi li kai
[ Tab from: http://www.guitartabs.cc/tabs/j/jay_chou/qing_tian_crd_ver_2.html ]
Chorus:

G
gua feng zhe tian
           Em7
wo shi guo wo zhe ni shou
             C9
dan pian pian  
yu jian jian
              G         D
da dao wo kan ni bu jian
B
hai yao duo jiu
            Em7
wo cai neng zai ni shen bian
 C9
deng dai fang qing de na tian
       D                       D7
ye xu wo hui bi jiao hao yi dian

G
cong qian cong qian
           Em7
you ge ren ai ni hen jiu
            C9
dan pian pian
feng jian jian
           G              D
ba ju li chui de hao yuan
B
hao bu rong yi
             Em7
you neng zai duo ai yi tian
G                  Em7
dan gu shi de zui hou ni hao 
      D                          C9-G-C9-G-C9-G-C9-G
xiang hai shi shuo liao bai bai

then go back to
(do intro)
wei ni qiao ke de na yi tian
hua luo de na yi tian....
 C9               G             D
....ni hui deng dai hai shi li kai

do chorus again..
then do C9-G-C9-G-C9-G-C9-G on the final part 
where the chorus is being rapped...then end with G

any comments or suggestion you can e-mail me at: athenz520@yahoo.com
Comments