Jay Chou - Gui Ji Chords & Tabs

 

Gui Ji Chords & Tabs

Jay Chou Chords & Tabs

Version: 1 Type: Tab 0 ratings
1 star 2 stars 3 stars 4 stars 5 stars
comments

Gui Ji Tab

   
Song Title: gui ji by zhou jie lun / jay chou
From Album: xun zhao zhou jie lun ep

Transcribed By: emily ( e56 )
Contact Email: fuzion_e@hotmail.nospam.com

Tuning: normal. (e a d g b e)
Capo: none

Notes on how to play it:
only the first 3 strings are used so i didnt include the 4th n 5th one.
the |-----|---| is not according to how many counts in  that bar but rather it follows the lyrics. 
play slowly? haha
my first try so any mistakes or improves will be helpful =)

TAB:

e|--------------------|--------------|------------------|------------|
b|---3--3-3--4-3--3-3-|-1-3--3-1---3-|---1--3-3--3-1-3--|-----3-1--1-|
g|-3------------------|-----------3--|-3--------------3-|0-3------3--|
d|--------------------|--------------|------------------|------------|
a|--------------------|--------------|------------------|------------|
e|--------------------|--------------|------------------|------------|

e|--------------------|-----------1--|------------------|------------|
b|---3--3-3--4-3--3-3-|-1-3--3-1---3-|---1--3-3--3-1-3--|----3-1--3-1|
g|-3------------------|----------3---|-3--------------3-|0-3-----3---|
d|--------------------|--------------|------------------|------------|
a|--------------------|--------------|------------------|------------|
e|--------------------|--------------|------------------|------------|

[ Tab from: http://www.guitartabs.cc/tabs/j/jay_chou/gui_ji_tab.html ]
e|--------1-----1-------|-----6-----6-|-----4-3-1-3-|-3-3-4-3-1------|
b|-4-3-4-3---4-3--4-3-4-|-4-4---4-4---|-4-4---------|-----------4----|
g|----------------------|-------------|--3----------|----------------|
d|----------------------|-------------|-------------|----------------|
a|----------------------|-------------|-------------|----------------|
e|----------------------|-------------|-------------|----------------|

e|--1-------|---6-3-1-----1----6--|
b|-3--4-3-4-|-4-------4-4---3-----|
g|----------|---------------------|
d|----------|---------------------|
a|----------|---------------------|
e|----------|---------------------|

chorus
e|-1---------|------------|------------1-1--|---1-1------------------| 
b|--4-3--3-3-|-3-4-3--3-1-|--1-3------3-----|--------4-4--3-1-4--3---| 
g|-----------|------------|------3--3-------|-3--------------------3-| 
d|-----------|------------|-----------------|------------------------|
a|-----------|------------|-----------------|------------------------|
e|-----------|------------|-----------------|------------------------|

e|---------------|
b|------1-2--1-1-|
g|-3-3--------3--|
d|---------------|
a|---------------|
e|---------------|


e|-1---------|------------|-----------1-1-|---1-1----|-----------|
b|--4-3--3-3-|-3-4-3--3-1-|-1-3-----3-----|------4-4-|-3-1-4-3---| 
g|-----------|------------|-----3-3-------|-3--------|---------3-|
d|-----------|------------|---------------|----------|-----------|
a|-----------|------------|---------------|----------|-----------|
e|-----------|------------|---------------|----------|-----------|


e|-------------|
b|-3-3-4-1-----|
g|---------3-3-|
d|-------------|
a|-------------|
e|-------------|


e|--1-1-3--|-----------|-------------||
b|-------4-|-3-1-4-3---|-3-3-4-1-----||
g|-3-------|---------3-|---------3-3-||
d|---------|-----------|-------------||
a|---------|-----------|-------------||
e|---------|-----------|-------------||
Comments