Jawbreaker - The Boat Dreams From The Hill Chords & Tabs

 

The Boat Dreams From The Hill Chords & Tabs

Jawbreaker Chords & Tabs

Version: 1 Type: Bass Tab 0 ratings
1 star 2 stars 3 stars 4 stars 5 stars
comments

The Boat Dreams From The Hill Bass Tab

-------------------------------------------
The boat dreams from the hill by Jawbreaker
-------------------------------------------

tabbed by endre bakken stovner ( taper1_@hotmail.com )


intro

G|----------|----------|---------|---------|---------|
D|----------|----------|---------|---------|---------|
A|----------|----------|-----0-1-2-2-0-2-0-|---------|
E|5-5-0-3-4-5-5-0-5-4-3|3-3-3----|--------3|5-5-0-3-4|

G|-----------|---------|----------|
D|-----------|---------|----------|
A|-----------|-----0-2-4-4-2-4-2-0|
E|5-5-0-5-4-3|3-3-3----|----------|

verse

G|--------|--------|--------|--------|
D|--------|--------|--------|--------|
A|--------|--------|--------|22222222|
E|55555555|55555555|33333333|--------|

G|--------|--------|--------|--------|
D|--------|--------|--------|--------|
A|--------|--------|--------|44444444|
E|55555555|55555555|33333333|--------|

bridge
[ Tab from: http://www.guitartabs.cc/tabs/j/jawbreaker/the_boat_dreams_from_the_hill_btab.html ]
G|--------|--------|--------|--------|
D|--------|--------|--------|--------|
A|--------|--------|--------|--------|
E|22222222|33333333|55555555|55555555|

G|--------|--------|--------|--------|
D|--------|--------|--------|--------|
A|--------|--------|55555555|55555555|
E|00000000|22222222|--------|--------|


G|--------|--------|--------|--------|
D|--------|--------|--------|--------|
A|--------|--------|--------|--------|
E|22222222|33333333|55555555|55555555|

G|--------|--------|--------|--------|
D|--------|--------|--------|--------|
A|--------|--------|55555555|5-------|
E|00000000|22222222|--------|--------|

chorus

G|--------|--------|--------|--------|
D|--------|--------|--------|--------|
A|--------|--------|--------|--------|
E|55555555|55555555|00000000|00000000|

G|--------|--------|--------|--------|
D|--------|--------|--------|--------|
A|--------|--------|55555555|55555555|
E|33333333|33333333|--------|--------|

Comments