Jason Mraz - What Would Love Do Now Chords & Tabs

 

Jason Mraz Chords & Tabs

Version: 1 Type: Tab 0 ratings
1 star 2 stars 3 stars 4 stars 5 stars
comments

What Would Love Do Now Tab

It took me a long time to make this, but finally it's finished.
Jason Mraz with the song 'What would love do'.
I hope you enjoy it, good luck
 

        Intro
     E |--------------0------------------------------------|
     B |----------------------0--------2-------------------|
     G |-----1-----1-------1-----------------2-------------|
     D |--------2-----2-------2--------2--2-----2/4-----2--|
     A |-----2----------------------0----------------4-----|
     E |--0--------------0---------------------------------|

     E |--------------0---------------------------2--------|
     B |----------------------0-----------4--4/5-----5-----|
     G |-----1-----1-------1-------------------------------|
     D |--------2-----2-------2--------4-----4----------4--|
     A |-----2----------------------2--------2-------------|
     E |--0--------------0---------------------------------|

     E |---------------------------------------------------|
     B |-------------------------------2-------------------|
     G |-----1-----1-------------------------2-------------|
     D |--------2-----2/4-----2--------2--2-----2/4-----2--|
     A |-----2-------------4--------0----------------4-----|
     E |--0------------------------------------------------|

     E |----------------------------------------0----------|
     B |-----------------4-----4---------------------------|
     G |-----1-----1-------------------1-----1-------------|
     D |--------2--------4--4-------------2-----2----------|
     A |-----2--------2----------------2-------------------|
     E |--0-------------------------0----------------------|



   Verse 1
E |--------------0------------------------------------|
B |----------------------0----------------------------|
G |-----1-----1-------1-----------1----1----1----1----|
D |--------2-----2-------2--------1----1----1----1----|
A |-----2----------------------3----------------------|
E |--0--------------0---------------------------------|
   It's nice to meet you. No, I'm not from outer space

E |--------------4-------------------------2----------|
B |-----6-----6-----6------------------------------2--|
G |-------------------------------3-----3-------3-----|
D |-----6--6-----------6-------------4-----4-------4--|
A |--4-----------4----------------4-------------------|
E |----------------------------2--------------2-------|
   but I'd like to take you, to a higher place,

E |--------------5-------------------------0----------|
B |-----------------------5------------------------0--|
G |-----6-----6--------6----------1-----1-------1-----|
D |--------7-----7--------7----------2-----2-------2--|
A |-----7-------------------------2-------------------|
E |--5--------------5----------0--------------0-------|
   where we won't ever have to leave the ground.

E |----------------------------------------0----------|
B |-----------------4-----4------------------------0--|
G |-----1-----1-------------------1-----1-------1-----|
D |--------2--------4--4-------------2-----2-------2--|
A |-----2--------2----------------2-------------------|
E |--0-------------------------0--------------0-------|
   Just ask what love would do now.

E |--------------0------------------------------------|
B |----------------------0----------------------------|
G |-----1-----1-------1-----------1----1----1----1----|
D |--------2-----2-------2--------1----1----1----1----|
A |-----2----------------------3----------------------|
E |--0--------------0---------------------------------|
   If it's got you thinking about a change of scenery

E |--------------4-------------------------2----------|
B |-----6-----6-----6------------------------------2--|
G |-------------------------------3-----3-------3-----|
D |-----6--6-----------6-------------4-----4-------4--|
A |--4-----------4----------------4-------------------|
E |----------------------------2--------------2-------|
   try letting go of what it was or how things ought to be

E |--------------5-------------------------0----------|
B |-----------------------5------------------------0--|
G |-----6-----6--------6----------1-----1-------1-----|
D |--------7-----7--------7----------2-----2-------2--|
A |-----7-------------------------2-------------------|
E |--5--------------5----------0--------------0-------|
   and ask what love would do now,  

E |----------------------------------------0----------|
B |-----------------4-----4------------------------0--|
G |-----1-----1-------------------1-----1-------1-----|
D |--------2--------4--4-------------2-----2-------2--|
A |-----2--------2----------------2-------------------|
E |--0-------------------------0--------------0-------|
   Just ask what love would do now.




        Bridge
     E |--------------0------------------------------------|
     B |-----------------------0----------------5-------5--|
     G |-----1-----1--------1----------6-----6-------6-----|
     D |--------2-----2--------2----------7-----7-------7--|
     A |-----2-------------------------7-------------------|
     E |--0--------------0----------5--------------5-------|
[ Tab from: http://www.guitartabs.cc/tabs/j/jason_mraz/what_would_love_do_now_tab.html ]
     E |--------------4-------------------------2----------|
     B |-----6-----6------6-----------------------------2--|
     G |-------------------------------3-----3-------3-----|
     D |-----6--6------------6------------4-----4-------4--|
     A |--4-----------4----------------4-------------------|
     E |----------------------------2--------------2-------|

     E |---------------------------------------------------|
     B |-----------4-----4-----4-------2-------------------|
     G |-----1-----3-----3-----3-------------2-------------|
     D |--------2--2-----2-----2-------2--2-----2/4-----2--|
     A |-----2----------------------0----------------4-----|
     E |--0--------3-----3-----3---------------------------|

     E |----------------------------------------0----------|
     B |-----------------4-----4------------------------0--|
     G |-----1-----1-------------------1-----1-------1-----|
     D |--------2--------4--4-------------2-----2-------2--|
     A |-----2--------2----------------2-------------------|
     E |--0-------------------------0--------------0-------|



   Verse 2
E |--------------0------------------------------------|
B |----------------------0----------------------------|
G |-----1-----1-------1-----------1----1----1----1----|
D |--------2-----2-------2--------1----1----1----1----|
A |-----2----------------------3----------------------|
E |--0--------------0---------------------------------|
   If you care to join me oh when you shake my hand,	

E |--------------4-------------------------2----------|
B |-----6-----6-----6------------------------------2--|
G |-------------------------------3-----3-------3-----|
D |-----6--6-----------6-------------4-----4-------4--|
A |--4-----------4----------------4-------------------|
E |----------------------------2--------------2-------|
   do not let go and soon you'll understand   

E |--------------5------------------------------------|
B |-----------------------5-------------------6----6--|
G |-----6-----6--------6----------1-----1-------------|
D |--------7-----7--------7----------2--------6--6----|
A |-----7-------------------------2--------4----------|
E |--5--------------5----------0----------------------|
   what it means to have a friend beside you, who's there to remind you

E |----------------------------------------0----------|
B |-----------------4-----4----------------0----------|
G |-----6-----6-------------------1-----1--1----------|
D |--------7--------4--4-------------2-----2----------|
A |-----7--------2----------------2--------2----------|
E |--5-------------------------0-----------0----------|
   that love is what you are right now.



E |--------------0------------------------------------|
B |-----------------------0----------------5-------5--|
G |-----1-----1--------1----------6-----6-------6-----|
D |--------2-----2--------2----------7-----7-------7--|
A |-----2-------------------------7-------------------|
E |--0--------------0----------5--------------5-------|
   Ask what would love do, what would love do,

E |--------------4-------------------------2----------|
B |-----6-----6------6-----------------------------2--|
G |-------------------------------3-----3-------3-----|
D |-----6--6------------6------------4-----4-------4--|
A |--4-----------4----------------4-------------------|
E |----------------------------2--------------2-------|
   what would love do now.

E |---------------------------------------------------|
B |-----------4-----4-----4-------2-------------------|
G |-----1-----3-----3-----3-------------2-------------|
D |--------2--2-----2-----2-------2--2-----2/4-----2--|
A |-----2----------------------0----------------4-----|
E |--0--------3-----3-----3---------------------------|
   What would love do now.

E |----------------------------------------0----------|
B |-----------------4-----4------------------------0--|
G |-----1-----1-------------------1-----1-------1-----|
D |--------2--------4--4-------------2-----2-------2--|
A |-----2--------2----------------2-------------------|
E |--0-------------------------0--------------0-------|
   What would love do now.

        Ending
     E |---------------------------------------------------|
     B |--------------4-----4-----4--2---------------------|
     G |-----1-----1--3-----3-----3--2---------------------|
     D |--------2-----2-----2-----2--2---------------------|
     A |-----2-----------------------0---------------------|
     E |--0-----------3-----3-----3------------------------|
        Oh, what would love do now.

     E |---------------------------------------------------|
     B |-----------------------------4---------------------|
     G |--1------------------------------------------------|
     D |--2--------------------------4---------------------|
     A |--2--------------------------2---------------------|
     E |--0------------------------------------------------|
        Oh, Love would love to love you now.

     E |---------------------------------------------------|
     B |-----2---------------------------------------------|
     G |-----------2-----------------1---------------------|
     D |-----2--2-----2/4-----2------2---------------------|
     A |--0----------------4---------2---------------------|
     E |-----------------------------0---------------------|





Something Like that...
Comments