Jason Mraz - Too Much Food Chords & Tabs

 

Too Much Food Chords & Tabs

Jason Mraz Chords & Tabs

Version: 2 Type: Tab 0 ratings
1 star 2 stars 3 stars 4 stars 5 stars
comments

Too Much Food Tab

   
----------------------------------------------------------------------------
			     Too Much Food - Jason Mraz
----------------------------------------------------------------------------

Tabbed by: Nathan Alexander
Email: phree89@yahoo.com

Tuning: Standard (EADGBE)

Order:
Intro/Hook
Verse Pt1
Verse Pt2
Verse Pt1
Verse Pt2
Chorus
Intro/Hook
Verse Pt1
Verse Pt2
Verse Pt1
Verse Pt2
Chorus
Break
Chorus


Intro/Hook Between Verses and Chorus
  Gb    E      A   Db7m Gb
E|---------------------------|
B|------------------2-2------|
G|-------------2-2--4-4------|
D|-4-4--2-2-2--2-2--3-3--4---|
A|-4-4--2-2-2--0-0--4-4--4---|
E|-2-2--0-0-0------------2---|
[ Tab from: http://www.guitartabs.cc/tabs/j/jason_mraz/too_much_food_tab_ver_2.html ]
Verse Part 1 (The lyrics start before the guitar)
                               Gb     E      A     
                            E|---------------------|
                            B|---------------------|
                            G|-------------2-2-2-2-|
                            D|-4-4--2-2-2--2-2-2-2-|
                            A|-4-4--2-2-2--0-0-0-0-|
                            E|-2-2--0-0-0----------|
  
Well you could say that I'm a one curly fry... 

Verse Part 2 2X at the end of each Verse
   D      Db7m  Gb
E|-------------------|
B|--------2-2-2------|
G|-7-7-7--4-4-4------|
D|-7-7-7--3-3-3--4---|
A|-5-5-5--4-4-4--4---|
E|---------------2---|

Savin' me for last but ya better not eat me at all...

Chorus
   Gb          A        B#
E|-------------------------------------|
B|-------------------------------------|
G|-------------------------------------|
D|-4-4-4-4---7-7-7-7-----9-9-9-9-------|
A|-4-4-4-4---7-7-7-7-----9-9-9-9-------|
E|-2-2-2-2---5-5-5-5-----7-7-7-7-------|

Cut up...  All about...  Tone of my...

Break
 Db7m 8X      D 4X      A 4X
E|---|       E|-2-|    E|---|
B|-2-|       B|-3-|    B|-2-|
G|-4-|       G|-2-|    G|-2-|
D|-3-|       D|---|    D|-2-|
A|-4-|       A|---|    A|---|
E|---|       E|---|    E|---|

Well if you 
are what you eat....
Comments