Jason Mraz - The Remedy Chords & Tabs

 

Jason Mraz Chords & Tabs

Version: 1 Type: Tab 0 ratings
1 star 2 stars 3 stars 4 stars 5 stars
comments

The Remedy Tab

There wasn't a tab for this song (only chords) so i decided to tab it!
It's a great song!               Enjoy!

Intro

e|8----8---8----8-----10----8---10----8---|
B|---6--6-----6--6--------6--6------6--6--|   x1
G|-------3--------3-2---------3---------3-|
D|--------------------0-------------------|
A|----------------------------------------|
E|----------------------------------------|

e|-----------------------------|
B|-----------------------------|    x2
G|-------8-x-8--------10-x-10--|
D|-5--5--8-x-8--3--3--10-x-10--|
A|-5--5--6-x-6--3--3--8--x-8---|
E|-3--3---------1--1-----------|

Verse

e|-----------------------------|
B|-----------------------------|
G|-------5-x-5--------3-x-3----|
D|-5--5--5-x-5--3--3--3-x-3----|
A|-5--5--3-x-3--3--3--1-x-1----|
E|-3--3---------1--1-----------|

Chorus

[ Tab from: http://www.guitartabs.cc/tabs/j/jason_mraz/the_remedy_tab.html ]
e|-------------------------------------------------------|
B|-------------------------------------------------------|
G|-------8-x-8---------------------8-x-8--------10-x-10--|
D|-5--5--8-x-8--3--3--3-x-3--5--5--8-x-8--3--3--10-x-10--|
A|-5--5--6-x-6--3--3--3-x-3--5--5--6-x-6--3--3--8--x-8---|
E|-3--3---------1--1--1-x-1--3--3---------1--1-----------|

Bridge Part A

e|----6---6---6---6---6---6---8---8--    
B|--6---6---6---6---6---6---6---6----    x2
G|-----------------------------------
D|-----------------------------------
A|-----------------------------------
E|-----------------------------------


Bridge Part B

e|-----------------------------
B|-----------------------------
G|-------8-x-8--------10-x-10--
A|-5--5--8-x-8--3--3--10-x-10--
D|-5--5--6-x-6--3--3--8--x-8---
E|-3--3---------1--1-----------

Well.............thats it!! I Hope it helps you a lot and you enjoy it!(It took me awhile!)

~~--Elijah
Comments