Jason Mraz - Plane Chords & Tabs

 

Plane Chords & Tabs

Jason Mraz Chords & Tabs

Version: 1 Type: Tab 0 ratings
1 star 2 stars 3 stars 4 stars 5 stars
comments

Plane Tab

--------------------------------------------------------------------------
			Plane - Jason Mraz
----------------------------------------------------------------------------

   *******AWESOME SONG....PLEASE BUY HIS NEW ALBUM "WORDPLAY"*******


Tabbed by: Joey R.
Email: jhrussell0812@sbcglobal.net	

Tuning: Standard tuning, capo on 2, All chord positions relative to capo.

PLEASE BE KIND...MY FIRST TIME!  EMAIL ME PLEASE WITH ANY COMMENTS OR SUGGESTIONS OR JUST TO SAY HEY.

INTRO AND VERSE
[ Tab from: http://www.guitartabs.cc/tabs/j/jason_mraz/plane_tab.html ]
e|---------4---4-----------0---0---------5---5-------4---4-----------------|
B|---------5---5-----------0---0---------5---5-------4---4-----------------|
G|---------6---6-----------1---1---------6---6-------5---5-----------------|
D|---------6---6-----------2---2---------6---6-------6---6-----------------|
A|----4----4---4-----------2---2-----7---7---7---6---6---6-----------------|
E|---------4---4-----0-0---0---0---------5---5-------5---5-----------------|


CHORUS

e|---5-------0-------4-----------------------------------------------------|
B|---5-------0-------4-----------------------------------------------------|
G|---6-------1-------5-----------------------------------------------------|
D|---6-------2-------6-----------------------------------------------------|
A|---7-------2-------6-----------------------------------------------------|
E|---5-------0-------5-----------------------------------------------------|

THIS IS PRETTY MUCH IT FOR THE OLD VERSION OF THIS SONG...IF YOU WANT TO PLAY
THE NEW VERSION THE ONLY DIFFERENCE IS AT THE END WHEN HE KEEPS REPEATING "YOU
GET ME HI...GHHHHHH. AND "DAMN DAMN OVER AND OVER.  YOU JUST PLAY THE VERSE
CHORDS TO THOSE LYRICS.
Comments