Jason Mraz - O Lover Chords & Tabs

 

O Lover Chords & Tabs

Jason Mraz Chords & Tabs

Version: 1 Type: Tab 0 ratings
1 star 2 stars 3 stars 4 stars 5 stars
comments

O Lover Tab

   
Jason Mraz's O Lover
Tabbed by Josh Burson, feedmehlieknow@gmail.com
This is my first tab, but every bit of it is accurate, and the song's way easy for how 
it sounds so glhf and all that jazz

(Intro)
e-5---6---6---6---|
b-6---6---6---6---|
g-7---7---7---7---|
d-7---8---7---8---|
a-5---8---5---8---|
e-5---6---5---6---|


(A)
e-7---3---2---|
b-7---3---2---|
g-7---3---2---|
d-9---5---4---|
a-9---5---4---|
e-7---3---2---|


(B)
e-------0---------2----------0---------2--|
b-----8---------2----------8---------2----|
g----9---------2----------9---------2-----|
d---9--------4-----------9--------4-------|
a-7--------------------7------------------|
e-----------------------------------------| x2


(C) Chords:
e-7---7---3---2---|
b-7---7---3---2---|
g-7---7---3---2---|
d-9---9---5---4---|
a-9---9---5---4---|
e-7---7---3---2---|

Lead:
e-------------------      --------------------------|
b-------------------      --------------------------|
g-------------------      --------------------------|
d-9--11--12--11--9-- (x2) -10--10--10----7--9--9/11-|
a-------------------      --------------------------|
e-------------------      --------------------------|
(not sure if I tabbed that out right, but you play the 9 on the d string again as the 
note which slides into 11)

[ Tab from: http://www.guitartabs.cc/tabs/j/jason_mraz/o_lover_tab.html ]
(D)
e-------7-----7------------9------9--|
b-----8-----8-----------10-----10----|
g----9----------------11-------------|
d---9---------------11---------------|
a-7---------------9------------------|
e------------------------------------| x4


(E)
e-5---6---|
b-6---6---|
g-7---7---|
d-7---8---|
a-5---8---|
e-5---6---|


(F)
e-7---8---3---5--6--|
b-7---8---3---5--6--|
g-7---8---3---5--6--|
d-9---10--5---7--8--|
a-9---10--5---7--8--|
e-7---8---3---5--6--| x2


(G)
e-------0-------- -------0--------|
b-----------6---- -----------6----|
g-----5-------5-- -----5-------5--|
d---7------------ ----------------|
a-5-------------- ----------------|
e---------------- -6--------------| x2

e-------0-------- -5---6---|
b-----------6---- -5---6---|
g-----5-------5-- -5---6---|
d-7-------------- -7---8---|
a---------------- -7---8---|
e---------------- -5---6---|


(Ending)
e----------------------------------------------------------------|
b-7-5-------------7-5-------------8-6-------------7-5------------|
g-------7-6-------------7-6-------------9-7-------------7-6------|
d-----------7-9-------------7-5-------------7-7-------------7-9--|
a----------------------------------------------------------------|
e----------------------------------------------------------------| x4
You don't exactly have to play that if you don't want to, you could just sing it and
breakbeat on the body of the guitar or something
Comments