Jason Mraz - Not So Usual Live Chords & Tabs

 

Not So Usual Live Chords & Tabs

Jason Mraz Chords & Tabs

Version: 1 Type: Tab 0 ratings
1 star 2 stars 3 stars 4 stars 5 stars
comments

Not So Usual Live Tab

   
-----------------------------------------------------------------------------
			     Not so Usual - Jason Mraz
-----------------------------------------------------------------------------
Tabbed by: Seth Jones
Email: sjeadgbe@aol.com
Tuning: Standard - no capo

these are the chords you can figure out how the rythm goes exactly

intro(1)
e|----------0---5---8---10--|
B|----------0---5---8---8---|
G|----------0---5---7---9---|
D|----------2---7---7---7---|  2x
A|--0h2-----2---7---x-------|
E|------0-0-0-------7-------|

e|--14-14-14-12---5---8---10---|
B|--12-12-12-12---5---8---8----|
G|--12-12-12-12---5---7---9----|
D|--12-12-12-12---7---7---7----|  2x
A|----------------7---x--------|
E|--------------------7--------|

verse
e|--0---0---0---|
B|--0---1---0---|
G|--0---2---2---|
D|--2---2---1---|  4x
A|--2---0---2---|
E|--0---0---0---|

chorus
e|--14-14-14-12---5---8---10---|
B|--12-12-12-12---5---8---8----|
G|--12-12-12-12---5---7---9----|
D|--12-12-12-12---7---7---7----|  2x
A|----------------7---x--------|
E|--------------------7--------|

verse 2
e|--0---0---0---|
B|--0---1---0---|
G|--0---2---2---|
D|--2---2---1---|  4x
A|--2---0---2---|
E|--0---0---0---|

chorus 2
e|--14-14-14-12---5---8---10---|
B|--12-12-12-12---5---8---8----|
G|--12-12-12-12---5---7---9----|
D|--12-12-12-12---7---7---7----|  4x
A|----------------7---x--------|
E|--------------------7--------|
[ Tab from: http://www.guitartabs.cc/tabs/j/jason_mraz/not_so_usual_live_tab.html ]
part after 2nd chorus
e|--0--------------------0-----------------0---|
B|--1---3----------------1---3-------------1---|
G|--2---0----------------2---0-------------0---|
D|--2---4--2x--0--0--2---2---4---0--0--2---2---|
A|--0---5------2--x--2---0---5---2--x--2---3---|
E|--0----------3--2--0---0-------3--2--0-------|

solo
e|-------------------------------------------------------------|
B|------------------------------------7------------------------|
G|------------------------------------7------------------------|
D|------5-7-7-5-0-------5-7-7/9-7-9h8---------5-7-7-5-0-5-4~---| 2x
A|--3/5-------------3/5-------------------3/5------------------|
E|-------------------------------------------------------------|

verse 3
e|--0---0---0---|
B|--0---1---0---|
G|--0---2---2---|
D|--2---2---1---|  4x
A|--2---0---2---|
E|--0---0---0---|

last chorus
e|--0---5---8---|
B|--0---5---8---|
G|--0---5---7---|
D|--2---7---7---|  4x
A|--2---7---x---|
E|--0-------7---|

end
e|-------------------------------------------------------------|
B|------------------------------------7------------------------|
G|------------------------------------7------------------------|
D|------5-7-7-5-0-------5-7-7/9-7-9h8---------5-7-7-5-0-5-4~---| 2x
A|--3/5-------------3/5-------------------3/5------------------|
E|-------------------------------------------------------------|

e|------------------|
B|------------------|
D|------5-7-7-5-0---|
A|--3/5-------------|
E|------------------|


| /  slide up
| \  slide down
| h  hammer-on
| p  pull-off
| ~  vibrato
| +  harmonic
| x  Mute note
=============================================================================
Comments