Jason Mraz - No Doubling Back Chords & Tabs

 

No Doubling Back Chords & Tabs

Jason Mraz Chords & Tabs

Version: 2 Type: Tab 0 ratings
1 star 2 stars 3 stars 4 stars 5 stars
comments

No Doubling Back Tab

No Doubling Back
Drop D Tuning (DADGBE)
No Capo

Intro/Verse (he switches between these two parts)

Part 1
e-------------------------0-0-0------------|
B-------------------------5-5-5------------|
G---4-2--2-2-2-2h4----6-4-4-4-4------------|
D-------------------------4-4-4------------|
A-0-----------------5-----5-5-5------------|
D------------------------------------------|

e------------------------------|
B---4-2--2-2-2-2h4-------5-----|
G----------------------6-------|
D------------------------------|
A-0-----------------5----------|
D------------------------------|

Part 2
e-0----0------|
B-2----5------|
G-2----4------|
D-2----4------|
A-0----5------|
D-------------|
[ Tab from: http://www.guitartabs.cc/tabs/j/jason_mraz/no_doubling_back_tab_ver_2.html ]
Chorus
Part 1 (play a couple times)
e---------------|
B-------2-------|
G-2--1--2-------|
D-2--2--2-------|
A----2----------|
D-2-------------|

Part 2 (play the last measure of the chorus)
e----------------|
B-------3--------|
G-2--1--2--------|
D-2--2-----------|
A----2-----------|
D-2--------------|

Bridge
e----------0--0-------------|
B----5-----0--0-------------|
G-4--4--2--2--1-------------|
D-2--2--2--2--2-------------|
A-4--------2--2-------------|
D----4--2--------4-4-4------|




Outro
This part a couple times
e---------------|
B-------2-------|
G-2--1--2-------|
D-2--2--2-------|
A----2----------|
D-2-------------|
The last measure
e----------------------|
B-------------3-----2--|
G-2--1-----4--2--1--2--|
D-2--2--4--4-----2--2--|
A----2--4--2-----2-----|
D-2-----2--------------|
Comments