Jason Mraz - God Moves Through You Chords & Tabs

 

God Moves Through You Chords & Tabs

Jason Mraz Chords & Tabs

Version: 1 Type: Tab 0 ratings
1 star 2 stars 3 stars 4 stars 5 stars
comments

God Moves Through You Tab

God Moves Through You
Drop D Tuning (DADGAD)
No Capo

intro
d-----------0-------------0-2-0-------0-----0--------------|
A-----------0-------------0-----0-----0-----0-------9-9-9--|
G------7----4-------------0-----------4-----6-------7------|
D----7-7--5---------------2-----------5-----7-----7-7------|
A-7h9--9-5----5-5p4p0---2-------------5-----7-7h9---9------|
D------0--------------2-----------4h5-5-5/7-7-------0------|

d---0-2-0---0--0-----------0--0----------------|
A---0-------0--0------9----0--0----------------|
G---1-------4--6------7----1--4-------7-7-0-7--|
D--2--------5--7----7-7---2---5-----7-7-7-0-7--|
A-0-------0-5--7-7h9--9--0----5--7h9--9-7-0-5--|
D-----------5--7------0-------5-------0-0-0-0--|

Verse
d-------------------------------------|
A------9-9-9-9-9----------------------|
G------7-7-7-7-7--4-4-----------------|
D----7-7-7-7-7-7--5-5-5p4-4h5p4-------|
A-7h9--9-9-7-9-9--5-5-----------5/7---|
D------0-0-0-0-0--5-5-----------------|

d-----------------------------------------|
A------9-9-9-9-9--------------------------|
G------7-7-7-7-7--4-4---------------------|
D----7-7-7-7-7-7--5-5-5p4-4h5p4-----------|
A-7h9--9-9-7-9-9--5-5-----------5-5-5p4p0-|
D------0-0-0-0-0--5-5---------------------|

d------------------------|
A------------------------|
G-------4-4-4-------4-6--|
D-2-2-2-5-5-5-2-2-2-5-7--|
A-2-2-2-5-5-5-2-2-2-5-7--|
D-2-2-2-5-5-5-2-2-2-5-7--|

Chorus
d---------------------------------|
A------9-9-9-9-9------------------|
G------7-7-7-7-7--4-4-------------|
D----7-7-7-7-7-7--5-5-5p4-4h5p4---|
A-7h9--9-9-7-9-9--5-5-----------5-|
D------0-0-0-0-0--5-5-------------|

d---------------|
A---------------|
G-------4-4-6---|
D-2-2-2-5-5-7---|
A-2-2-2-5-5-7---|
D-2-2-2-5-5-7---|

[ Tab from: http://www.guitartabs.cc/tabs/j/jason_mraz/god_moves_through_you_tab.html ]
Bridge
d-----------------------|
A--------------9-9-9-9--|
G-1-4-4-4------7-7-7-7--|
D-2-5-5-5----7-7-7-7-7--|
A-2-5-5-5-7h9--9-9-7-9--|
D-2-5-5-5------0-0-0-0--|

d-------------------|
A----------9-9-9-9--|
G-1-4------7-7-7-7--|
D-2-5----7-7-7-7-7--|
A-2-5-7h9--9-9-7-9--|
D-2-5------0-0-0-0--|

Song order

Intro
Verse
Chorus
Verse
Chorus
Bridge
Chorus
Verse
Chorus
Bridge
Chorus
Verse
Chorus

Version 2
Tuning: Drop D
Capo 2


Intro/Verse
e--------0-----------------0---------------|
B----------3-----------------3-------------|
G----0-------0-0-0-----0-------0-0-0-------|
D------4-------4---4-----4-------4---------|
A--------------5-----------------5---------|
D-0------------------0---------------------|

e--------0-----------------0---------------|
B----------3-----------------3-------------|
G----0-------0-0-0-----0-------0-0-0-------|
D------4-------4---4-----4-------4---------|
A--------------5-----------------5---------|
D-5------------------5---------------------|

Chorus back into verse
e---------------------------------------|
B-----0-0-0-0-0-0-0-0-0-0-0-0-0-0-0-0---|
G-----0-0-0-0-0-0-0-0-0-0-0-0-0-0-6-6---|
D-----2-2-2-2-5-5-5-5-2-2-2-2-5-5-7-7---|
A-----2-2-2-2-5-5-5-5-2-2-2-2-5-5-7-7---|
D-5-4-2-2-2-2-5-5-5-5-2-2-2-2-5-5-7-7---|
Bridge back into verse
e-0---0----------0-----------------0-----------|
B-0---0------------3-----------------3---------|
G-1---4------0-------0-0-0-----0-------0-0-0---|
D-2---5--------4-------4---4-----4-------4-----|
A-2---5----------------5-----------------5-----|
D-0---0---0------------------0-----------------|

e-0---0----------0-----------------0-----------|
B-0---0------------3-----------------3---------|
G-1---4------0-------0-0-0-----0-------0-0-0---|
D-2---5--------4-------4---4-----4-------4-----|
A-2---5----------------5-----------------5-----|
D-0---0---0------------------0-----------------|
Comments