Jason Mraz - Curbsite Prophet Chords & Tabs

 

Curbsite Prophet Chords & Tabs

Jason Mraz Chords & Tabs

Version: 1 Type: Tab 0 ratings
1 star 2 stars 3 stars 4 stars 5 stars
comments

Curbsite Prophet Tab

Curbside Prophet

Subukan nyo to. Maganda na song ito.


Standard Tuning
No Capo

intro:
e-----------3\0-------------------|
B-----------3\0-------------------|
G-----4-------------2-------------|
D-----5-------------3-------------|
A-------0-3-----------0-1------1--|
E-3-3-----------1-1-------0h1h3-3-|
[ Tab from: http://www.guitartabs.cc/tabs/j/jason_mraz/curbsite_prophet_tab.html ]
everything else:
e--------------------------------------|
B--------------------------------------|
G--------------5-5---------------3-3---|
D-----5-5------5-5------3-3------3-3---|
A-----5-5--3-3----------3-3--1-1-------|
E-3-3---------------1-1----------------|

Just in case you have a banjo lying around
d-------------------|
B-8-6---------------|
G-----5-5h7p5-------|
D-------------8p5---|
g-------------------|


Version 2

Whole Song:
e-----------------------------------------------|
B--------------8\-------1-----------------------|
G-----4--------7\-------2---------0-------0-----|
D-----5--------7\-------2-------0-------0-------|
A-----------------------------5-------3---------|
E--3-3--x--8-8---x--1-1--x--6-------5-----------|
Comments