Jason Mraz - Bright Eyes Chords & Tabs

 

Bright Eyes Chords & Tabs

Jason Mraz Chords & Tabs

Version: 1 Type: Tab 0 ratings
1 star 2 stars 3 stars 4 stars 5 stars
comments

Bright Eyes Tab

   
-----------------------------------------------------------------------------
			     BRIGHT EYES  Jason Mraz
-----------------------------------------------------------------------------

Tabbed by: Stephanie Shore
Email: Bttrfly619@aol.com

Tuning: Standard

INTRO
e|-------------------------1-1---1--------------------------1-1-------------|
B|------2--------2---------0-0-0-0--2-0-------2-----2-------0-0-------------|
G|------2--------2---------2-2---2------2-----2-----2-------2-2-------------|
D|------2--------2------0---------------------2-----2----0------------------|
A|--0-------0-0------0----------------------0---0-0----0--------------------|
E|--------------------------------------------------------------------------|
[ Tab from: http://www.guitartabs.cc/tabs/j/jason_mraz/bright_eyes_tab.html ]
VERSE
e|-------------------1-----1------------------------------------------------|
B|-----2------2------0-----0------------------------------------------------|
G|-----2------2------2-----2------------------------------------------------|
D|-----2------2----0---0-0--------------------------------------------------|
A|--0-----0-0----0----------------------------------------------------------|
E|--------------------------------------------------------------------------|

DIFFERENT PARTS OF VERSE
e|-----1--------------------------------------------------------------------|
B|-----3------2--------------2----------------------------------------------|
G|-----4------2-------1------2----------------------------------------------|
D|-0-1-1------2-------2------2----------------------------------------------|
A|---------0----------2---0----------------------------0---0---2-0----------|
E|-----------------0---------------------riff thing--0---2---4--------------|

OUTRO
e|---------------1----------------0-----------------------------------------|
B|-----2---------0------------2p0-------------------------------------------|
G|-----2---------2---------1--2----------------------------------------------
D|-----2---2-0------2---2--2--2---------------------------------------------|
A|--0-----------------0----2------------------------------------------------|
E|--------------------------------------------------------------------------|


| /  slide up
| \  slide down
| h  hammer-on
| p  pull-off
| ~  vibrato
| +  harmonic
| x  Mute note

=============================================================================
Comments