Jason Mraz - Better Acoustic Chords & Tabs

 

Better Acoustic Chords & Tabs

Jason Mraz Chords & Tabs

Version: 1 Type: Tab 0 ratings
1 star 2 stars 3 stars 4 stars 5 stars
comments

Better Acoustic Tab

Jason Mraz
Better
Drop D & Capo 4th
by: TheJoeyH Show (AlabamaFan34@yahoo.com)

This tab was tabbed out according to a show Jason did at Java Joe’s. So it might not
be exactly like every version you have heard. He likes to .. change things up a little.

Part (1)
e-----------------------------------------------------------------------|
B--------1/3---3----------0h1---1----------0h1-0-------------0----------|
G------------0---0------------0---0--------------0---------2---2--------|
D------0----------------0----------------0---------0-----0-------0------|
A----5----------------3----------------2---------------3-----------3----|
D--5----------------3----------------2---------------1------------------|

Part (2)
e-----------------------------------------------------------------------|
B-----------------------------------------------------------------------|
G------0---0---------0---0---------0---0---------0---0------------------|
D------------0-0-----------0-0-----------0-0-----------0-0--------------|
A----5---5---------5---5---------5---5---------5---5--------------------|
D--5-------------4-------------3-------------2--------------------------|
[ Tab from: http://www.guitartabs.cc/tabs/j/jason_mraz/better_acoustic_tab.html ]
Part (3)
e----------------------------------|
B----------0-------------0---------|
G--------2---2-------2-----2-------|
D------4-------4-------4----(4)----|
A----3-----------3-----------------|
D--0---------------0---------------|

Part (4)
e-------------------------------------------------|
B-------------------------------------------------|
G-------5---4---7---4-----------------------------|
D-------5---5---5---5-----5-----7--5--4---4-5-7---|2x then
A----3----------------3-------3-5--3--3---3-3-3---|
D--3------3---3---3-----3---0-----0--0---0--------|

e------------------------------------------------------------------|
B------------------------------------------------------------------|
G-------5---4---7---4------------------------2---2-----2-4-2-------|
D-------5---5---5---5-----5-----7--5--4--------4---4---------4/5---|
A----3----------------3-------3-3--3--3----3-----------------------|
D--3------3---3---3-----3---0-----0--0---0-----------0-------------|

Part (5)
e-------------------------------------|
B----------0---------------0----------|
G--------2---2-----------2---2--------|
D------4-------4-------4-------4------|
A----3-----------3---3-----------3----|
D--0---------------0---------------0--|


End
e--------------------3----------------|
B----------0---------3----------------|
G--------2---2-------0----------------|
D------0-------0-----0----------------|
A----3-----------3---5----------------|
D--1-----------------5----------------|
Comments