Jason Becker - Serrana Chords & Tabs

 

Serrana Chords & Tabs

Jason Becker Chords & Tabs

Version: 1 Type: Tab 0 ratings
1 star 2 stars 3 stars 4 stars 5 stars
comments

Serrana Tab

   
OK, so this has to be one of the most incredible songs by an incredible
guitarist (and a really nice guy.) This is Jason Becker's "Lullaby"
Serrana. By the way, this guy has a crippling disease known as ALS, or
Lou Gehrigs, and can still play guitar like a beast.
OK... here's the tab...

Tabbed by tantragurun on Power Tab
Transcribed to tab by Mark Shannelly

4/4
  Gtr I
|-22-------------------------------------------14-17p14-------------|
|-------------15----------------------------15----------15----------|
|----------14----14----------------------14----------------14-------|
|-------16----------16----------------16----------------------16----|
|----17----------------17-12----12-17----------------------------17-|
|----------------------------14-------------------------------------|


|----------------14-17p14----------14-22p17----------------------------17---|
|-------------15----------15----15----------19----------------------19------|
|----------14----------------14----------------19----------------19---------|
|-------16----------------------------------------19-16----16-19------------|
|-12-17-------------------------------------------------17------------------|
|---------------------------------------------------------------------------|


  G
|-19p15----------------------------15-22p19-------------------------19-22-|
|-------15----------------------15----------20-------------------20-------|
|----------16----------------16----------------19-------------19----------|
|-------------17----------17----------------------21-17-17-21-------------|
|----------------17-14-17-------------------------------------------------|
|-------------------------------------------------------------------------|


|-22-19----------19-19p15----------15-15p10----------------------------10--|
|-------20----20----------15----15----------12----------------------12-----|
|----------19----------------16----------------12----------------12--------|
|-------------------------------------------------12----------12-----------|
|----------------------------------------------------14-10-14--------------|
|--------------------------------------------------------------------------|


  A
|-12p9-----------------------9-12s17p12----------------------------12-|
|------10-----------------10------------14----------------------14----|
|---------9-------------9------------------14----------------14-------|
|-----------11-------11-----------------------14----------14----------|
|--------------12-12-----------------------------16-12-16-------------|
|---------------------------------------------------------------------|


|-17p12----------12-12p9---------9-9p5----------------------|
|-------14----14---------10---10-------5--------------------|
|----------14---------------9------------6---------------6--|
|------------------------------------------7-----------7----|
|--------------------------------------------7-4---4-7------|
|------------------------------------------------5----------|


  D
|-14p10---------------------------10s17p14----------------------------14-|
|-------10---------------------10----------15----------------------15----|
|----------11---------------11----------------14----------------14-------|
|-------------12---------12----------------------16----------16----------|
|----------------12-9-12----------------------------17-12-17-------------|
|------------------------------------------------------------------------|


|-17p14----------14-18p14----------14-16p14----------14-17----|
|-------15----15----------15----15----------15----15----------|
|----------14----------------14----------------14-------------|
|-------------------------------------------------------------|
|-------------------------------------------------------------|
|-------------------------------------------------------------|


    F#m
||--21p17----------------------------17-21p17----------17-22p17----------17--||
||o-------19----------------------19----------19----19----------19----19----o||
||-----------18----------------18----------------18----------------18--------||
||--------------19----------19-----------------------------------------------||
||o----------------21-16-21-------------------------------------------------o||
||---------------------------------------------------------------------------||

[ Tab from: http://www.guitartabs.cc/tabs/j/jason_becker/serrana_tab.html ]
  Bm
|-19p14----------------------------14-19p14----------14-21p14----------14--|
|-------15----------------------15----------15----15----------15----15-----|
|----------16----------------16----------------16----------------16--------|
|-------------16----------16-----------------------------------------------|
|----------------17-14-17--------------------------------------------------|
|--------------------------------------------------------------------------|


|-19p14----------------------------14-19p14----------14-21p14----------14-|
|-------15----------------------15----------15----15----------15----15----|
|----------16----------------16----------------16----------------16-------|
|-------------16----------16----------------------------------------------|
|----------------17-14-17-------------------------------------------------|
|-------------------------------------------------------------------------|


  Em                                  Cm
|-24p19-------------------------------20p15--------------------------------|
|-------20-------------------------20-------16-------------------------16--|
|----------21-------------------21-------------17-------------------17-----|
|-------------21-------------21-------------------17-------------17--------|
|----------------22-19----22-------------------------18-15----18-----------|
|----------------------19----------------------------------15--------------|


  Abm
|-16p11----------------------------11-16p11----------11-18p11----------11-|
|-------12----------------------12----------12----12----------12----12----|
|----------13----------------13----------------13----------------13-------|
|-------------13----------13----------------------------------------------|
|----------------14-11-14-------------------------------------------------|
|-------------------------------------------------------------------------|


  Eb
|-15p11----------------------------11-18p15----------------------------15--|
|-------11----------------------11----------16----------------------16-----|
|----------12----------------12----------------15----------------15--------|
|-------------13----------13----------------------17----------17-----------|
|----------------13-10-13----------------------------18-13-18--------------|
|--------------------------------------------------------------------------|


|-23p18----------------------------18-23p18------------------|
|-------20----------------------20----------20---------------|
|----------20----------------20----------------20------------|
|-------------20-17----17-20----------------------20-17------|
|-------------------18----------------------------------18---|
|------------------------------------------------------------|


  D+7
|----------------13-16p13----19p16----22p19----------------------17-18-19--|
|-15p12----12-15----------15-------18-------21----------------21-----------|
|-------13-------------------------------------22-19----19-22--------------|
|----------------------------------------------------21--------------------|
|--------------------------------------------------------------------------|
|--------------------------------------------------------------------------|


    Cm
||--20p15----------------------------15-20p15----------15-22p15----------15--||
||o-------16----------------------16----------16----16----------16----16----o||
||-----------17----------------17----------------17----------------17--------||
||--------------17----------17-----------------------------------------------||
||o----------------18-15-18-------------------------------------------------o||
||---------------------------------------------------------------------------||


  C+7
|-20p17----------------------------17-20p17----------17p14----------14-----|
|-------19----------------------19----------19-------------16----------16--|
|----------20-17----------17-20----------------20-17----------17-14--------|
|----------------19-16-19--------------------------------------------------|
|--------------------------------------------------------------------------|
|--------------------------------------------------------------------------|


|-17p14----------------------------14-17p14-------------------------------|
|-------16----------------------16----------16-------16p13----------------|
|----------17-14----------14-17----------------17-14-------14-------14-11-|
|----------------16-13-16-------------------------------------16-13-------|
|-------------------------------------------------------------------------|
|-------------------------------------------------------------------------|


|-------------|--------*|
|-------------|--------*|
|-12-13-12-11-|-12-----*|
|-------------|--------*|
|-------------|--------*|
|-------------|--------*|
Comments