Jars Of Clay - Weighed Down Chords & Tabs

 

Weighed Down Chords & Tabs

Jars Of Clay Chords & Tabs

Version: 2 Type: Bass Tab 0 ratings
1 star 2 stars 3 stars 4 stars 5 stars
comments

Weighed Down Bass Tab

   
Weighed Down
by Jars of Clay
(c) 1997 Bridge Building Music/Pogostick Music (BMI)
Toonman (bass4jesus@aol.com)


(Don't play bass on intro or 1st verse)


CHORUS:  D       A       B       C#      D       A      B       F#

[ Tab from: http://www.guitartabs.cc/tabs/j/jars_of_clay/weighed_down_btab_ver_2.html ]
VERSE:
G-------------4-----4---6---------------------------------------
D---------4-6-------------------------6-----4-------------------
A-4-----4-----------------------7-----------------7-----4-------
E-----------------------------------------------------------7---

                                                             (4x)
G-------------3-------------------------------------------------|
D-4-----6-----------6-----4-------------------7-----6---------4-|
A---------------------------------------7-----------------7-----|
E---------------------------------5-----------------------------|

(Repeat Chorus)

(Repeat Verse until fade-out)
Comments