Jars Of Clay - Unforgetful You Chords & Tabs

 

Unforgetful You Chords & Tabs

Jars Of Clay Chords & Tabs

Version: 2 Type: Tab 0 ratings
1 star 2 stars 3 stars 4 stars 5 stars
comments

Unforgetful You Tab

   
Unforgetful You
by Jars Of Clay
Album: If I Left The Zoo
(c) 1999 Bridge Building Music, Inc./Pogostick Music/BMI.
Submitted by Cody Pitre, cpitre@intop.net
------------------------------------------------

Intro: E   B   A   B

Verse 1:
E                 B          A     B
I never minded calling You a king
        E                    B
If that meant that I could count on You

to give me everything
  E                     A
I never thought I'd ask You
F#m           B
I always You knew
       E            B          A      B
It was never my intention to question You

Verse 2
     E               B         A       B
You never minded calling me a child
        E                  B             A
Well, I guess that's how I acted all the while
        E                       A
But You live through every tantrum
F#m                    B
You see through every lie
            E                 B
Though they seem to be more common
       A                  B         E
I just wanted You to know why oh why
[ Tab from: http://www.guitartabs.cc/tabs/j/jars_of_clay/unforgetful_you_tab_ver_2.html ]
Chorus:
 E        B
(Ah..ah..ah..)
A      B    E
Unforgetful You,
         B
(Ah..ah..ah..)
 A      B
unforgetful
E         B
(Ah..ah..ah..)
 A      B    E
Unforgetful You,
         B
(Ah..ah..ah..)
A       B
so unforgetful

E   B   A   B

Verse 3: (same as verse 2)
You never minded giving us the stars
Then showing us how blind and unaware of You we are
You painted me a picture and me how to see
Though I just won't behold it
unless it pertains to me

Chorus

Bridge Solo: (use wah pedal)
e------------------|-----------------|
b------------------|-----------------|
g------------------|---5------3--p0--|
D----5--3----------|---5--5---3--p0--|
A----------5--4--3-|-----------------|
E-3----------------|-----------------|

e------------------|----------------|
b------------------|------------7b8-|
g------------------|---5------3-----|
D----5--3----------|---5--5---3-----|
A----------5--4--3-|----------------|
E-3----------------|----------------|

e------------------|---------------|
b------------------|---------------|
g------------------|-5-----3--3p0--|
D----5--3----------|-5--5--3--3p0--|
A----------5--4--3-|---------------|
E-3----------------|---------------|

e------------------|----------------6---|
b------------------|----------------5b6-|
g------------------|-5------3--3h5------|
D----5--3----------|-5--5---3-----------|
A----------5--4--3-|--------------------|
E-3----------------|--------------------|

Repeat intro (oooh Yeah!!)
Chorus


Send any requests to <- electricpickboy@yahoo.com ->
Comments