Jars Of Clay - Truce Chords & Tabs

 

Truce Chords & Tabs

Jars Of Clay Chords & Tabs

Version: 2 Type: Tab 0 ratings
1 star 2 stars 3 stars 4 stars 5 stars
comments

Truce Tab

   
#----------------------------------PLEASE NOTE--------------------------------#
#This file is the author's own work and represents their interpretation of the#
#song. You may only use this file for private study, scholarship, or research.#
#-----------------------------------------------------------------------------#

Date: Fri, 20 Feb 1998 14:35:57 -0500
From: Brian Germer  (by way of cal woods)
Subject: TAB: Truce by Jars of Clay


Author/Artist: Jars of Clay
Title: Truce
Album: Much Afraid
Transcribed by: Brian Germer (Soul Detergent Music)
Email: BJG20773@ix.netcom.com
For more Jars tabs:
http://members.xoom.com/Jarstabs/index.htm

This song is played with a capo at the 2nd fret; tab is written without
capo.

Section A (tab after bar 2nd time only)

---------------------------------------------------|--------------------------|
----------5------------4------------3------------2-|--5-4---------------------|
-------2------------2------------2------------2----|--------------------------|
----4------------4------------4------------4-------|--------------------------|
---------------------------------------------------|--------------------------|
-2------------2-----------2------------2-----------|--------------------------|
 Section B:(pick chords first
time)

--4-------5-------2---4-----2------|--4-------3-------------------------------|
--5-------5-------2-----2-----2----|--5-------5-------------------------------|
--4-------2-------2-------2-----2--|--4-------4-------------------------------|
--2-------4-------4----------------|--2-------2-------------------------------|
----------5-------4----------------|------------------------------------------|
------------------2----------------|------------------------------------------|
 Section C:
(Chorus)
[ Tab from: http://www.guitartabs.cc/tabs/j/jars_of_clay/truce_tab_ver_2.html ]
----------------------------------------------5-x--5-x--5---------------------|
--3--3--x-x-x-x--5--5--x-x-x-x--3-3--x-x-x-x--5-x--5-x--5---------------------|
--4--4--x-x-x-x--6--6--x-x-x-x--2-2--x-x-x-x--2-x--2-x--2---------------------|
--4--4--x-x-x-x--6--6--x-x-x-x--4-4--x-x-x-x--2-x--2-x--2---------------------|
--2--2--x-x-x-x--4--4--x-x-x-x--5-5--x-x-x-x--4-x--4-x--4---------------------|
----------------------------------------------5-x--5-x--5---------------------|
 Section D:(w/slight
variation)

----------------------------------------------2-----------------2-------------|
--3--3x----3--3x----3--3x----3--3x--------------2-----------------2-----------|
--4--4x----4--4x----4--4x----4--4x---------2------2----------2------2---------|
--4--4x----4--4x----4--4x----4--4x------4-----------------4-------------------|
--2--2x--2-2--2x--2-2--2x--2-2--2x--------------------------------------------|
-------------------------------------2----------------2-----------------------|

(Section
A)

Faultless in the eyes that I could never open wide
enough to see me through
Much to my surprise it never orbits around the things
you should hold me to
(Section B)
I stand here...wondering
And I'm waiting

Chorus:(Section C)

My ear is twisted in all the thoughts
A glimpse of truce just because
It's always almost never close
I close my eyes, hide the distance
(Section D)
Enchanted by the face of peace and when it turns to
sunken eyes and waterfalls
Unsatisfied with simple things entangled in the chords,
I can't take any calls
(Section B)
I stand here waiting
I'm calling

[Chorus](Section C)

Refrain (**actual chords** Not chord shapes relative to capo.)
BM     G#M      C#m       C#m/B        BM
        Waiting around for some kind of peace
       G#M        C#m     C#m/B   AM F#m   AM  BM(into section C)
        Hoping you find me in my need
(Section C)
My ear is twisted
It's always almost

[Chorus]

Words and music by Dan Haseltine, Matt Odmark, Steve Mason, Charlie
Lowell
Copyright 1997 BridgeBuilding Music (BMI)/Pogostick Music (BMI). All
rights reserved.
Comments