Jars Of Clay - Sinking Chords & Tabs

 

Sinking Chords & Tabs

Jars Of Clay Chords & Tabs

Version: 1 Type: Bass Tab 0 ratings
1 star 2 stars 3 stars 4 stars 5 stars
comments

Sinking Bass Tab

Intro

G---------------------------------------------------------------|
D---------------------------------------------------------------|
A---------------------------------------------------------------|
E-3-3--6----3-3--6----------------------------------------------|


Verse

G---------------------------------------------------------------|
D---------------------------------------------------------------|
A-----------------3---------------------------------------------|  x2
E-3-3--6-6----3-3---6-------------------------------------------|

("Pre-chorus"?)...whatever you wanna call it, this leads into the chorus....

G---------------------------------------------------------------|
D---------------------------------------------------------------|
A-3-3-------3-3---6---8-----------------------------------------|
E------6-6------------------------------------------------------|

Chorus 1

G---------------------------------------------------------------|
D---------------------------------------------------------------|
A------------3-3--3-3------------3-3--3-------------------------|
E--3-3--3-3------------3-3--3-3---------------------------------|and end on

G-------------|
D-------------|
A-------------|
E-3-3--6------|

Chorus 2
[ Tab from: http://www.guitartabs.cc/tabs/j/jars_of_clay/sinking_btab.html ]
G----------------------------5/7-5------5/7-5--------------------|
D-----5/7-5------5/7-5-----5----------5--------------------------|
A---5----------5---------3----------3----------------------------|
E-3----------3---------------------------------------------------|

Bridge

G---------------------------------------------------------------|
D---------------------------------------------------------------|
A-3-3--3-3------------3-3--3-3---6------------------------------|
E-----------3-3--3-3-----------------6----3---------------------|

"Pre-Chorus"

G---------------------------------------------------------------|
D---------------------------------------------------------------|
A-3-3-------3-3---6---8-----------------------------------------|
E------6-6------------------------------------------------------|

Chorus 2

G----------------------------5/7-5------5/7-5--------------------|
D-----5/7-5------5/7-5-----5----------5--------------------------|
A---5----------5---------3----------3----------------------------|
E-3----------3---------------------------------------------------| x2 cont...

G---------------------------7-9----------------------------------|
D----5/7-5------5/7-5-----5--------------------------------------|
A---5---------5---------3----------3-----------------------------|
E-3---------3----------------------------------------------------| x2


End song on....

G---------------------------------------------------------------|
D---------------------------------------------------------------|
A---------------------------------------------------------------|
E-3-3--6-6--3-3--6----------------------------------------------|


comments to manof3200@msn.com
Comments