Jars Of Clay - Portrait Of An Apology Chords & Tabs

 

Portrait Of An Apology Chords & Tabs

Jars Of Clay Chords & Tabs

Version: 1 Type: Tab 0 ratings
1 star 2 stars 3 stars 4 stars 5 stars
comments

Portrait Of An Apology Tab

   
Click here for a plain text version of this song

Song: Portrait of an Apology
Band: Jars of Clay
Album: Much Afraid (1997)
Tabbed by: jKWAKE (joshuacaleb@hotmail.com)
Tuning: Standard



use kind of a sincopated rhythm.
INTRO/VERSES
     D          F/G          G  
e------3-3---3----3-3---3-----3-3---3-----3-3---3----r
B------3-3---3----3-3---3-----3-3---3-----3-3---3----e
G----2-----2----0-----0-----0-----0-----0-----0------p
D--0-------------------------------------------------e
A----------------------------------------------------a
E--------------1----------3------------3-------------t
[ Tab from: http://www.guitartabs.cc/tabs/j/jars_of_clay/portrait_of_an_apology_tab.html ]
(guitar 2?)verses
e--------0----------0----------0--------------
B---0--1--3-1--0--1--3-1--0--1--3-1-----------
G-------------------------------------2-0---0-
D-----------------------------------------2---
A---------------------------------------------
E---------------------------------------------
this along with other little bass riffs too.

CHORUS
   E    F#    G          A
e--0-----2----3----------0------------------------
B--0-----2----3----------2------------------------
G--1-----3----0----------2------------------------
D--2-----4----0----------2------------------------
A--2-----4----2----------0------------------------
E--0-----2----3-----------------------------------
 "could you stay for a while..."

repeating several times sometimes using 
variations like this in the chorus
   E  F# G    C  A       C  D
e--0--2--3----0--0-------0--2-----------
B--0--2--3----1--2-------2--3-----------
G--1--3--0----0--2---or--2--2-----------
D--2--4--0----2--2-------2--0-----------
A--2--4--2----3--0-------0--------------
E--0--2--3------------------------------

this is just a quick post of the chords, more happens in the song.
comments? corrections?  (joshuacaleb@hotmail.com)


Sent any requests to 
Comments