Jars Of Clay - Frail Chords & Tabs

 

Frail Chords & Tabs

Jars Of Clay Chords & Tabs

Version: 2 Type: Tab 0 ratings
1 star 2 stars 3 stars 4 stars 5 stars
comments

Frail Tab

   
Frail
by: Jars of Clay
CD: Crazy Times and JOC original demo
written by: Jars of Clay
originally from: J.B. (Cheezer42@aol.com) or (guitarman.jbd@juno.com)
corrected by Jed Carson
jclgreat@juno.com
members.xoom.com/jclg/jed.html
Copyright:Brentwood Music

|
| these are repeat signs

verse

     Em9
e---------2-------------------------2------------------------2--------
b------------------3----------------------3---------------------3-----
g----------------------0------------------------0---------------------
d----2----------------------------------------------------------------
a---------------------------------------------------------------------
e---------------------------------------------------------------------

     Em9
e---------2-------------------------2------------------------2--------
b------------------3----------------------3---------------------3-----
g----------------------0------------------------0---------------------
d----2----------------------------------------------------------------
a---------------------------------------------------------------------
e---------------------------------------------------------------------

    Cadd2
e-----------------------0----------------------0----------------------
b------------3------------------3--------3----------------------------
g-------------------0----------------0--------------------------------
d---------------------------------------------------------------------
a---3------------------------------------------------3-------2--------
e---------------------------------------------------------------------

    A7sus4
e---------------------0-------------------------0---------------------
b-----------3-------------------3----------3----------------3---------
g----------------0--------------------0-------------------------------
d---------------------------------------------------------------------
a---0-----------------------------------------------------------------
e---------------------------------------------------------------------

repeat above parts for a total of two times

     Em9
e---------2-------------------------2------------------------2--------
b------------------3----------------------3---------------------3-----
g----------------------0------------------------0---------------------
d----2----------------------------------------------------------------
a---------------------------------------------------------------------
e---------------------------------------------------------------------

     Em9

e---------2-------------------------2----------------------2-----0----
b------------------3----------------------3-------------------3-------
g----------------------0------------------------0---------------------
d----2----------------------------------------------------------------
a---------------------------------------------------------------------
e---------------------------------------------------------------------

    Cadd2
e-----------------------0----------------------0----------------------
b------------3------------------3--------3----------------------------
g-------------------0----------------0--------------------------------
d---------------------------------------------------------------------
a---3------------------------------------------------3-------2--------
e---------------------------------------------------------------------

    A7sus4
e---------------------0-------------------------0---------------------
b-----------3-------------------3----------3----------------3---------
g----------------0--------------------0-------------------------------
d---------------------------------------------------------------------
a---0-----------------------------------------------------------------
e---------------------------------------------------------------------

     Em9
e---------2-------------------------2------------------------2--------
b------------------3----------------------3---------------------3-----
g----------------------0------------------------0---------------------
d----2----------------------------------------------------------------
a---------------------------------------------------------------------
e---------------------------------------------------------------------
[ Tab from: http://www.guitartabs.cc/tabs/j/jars_of_clay/frail_tab_ver_2.html ]
     Em9
e---------2-------------------------2------------------------2h3------
b------------------3----------------------3---------------------------
g----------------------0------------------------0---------------------
d----2----------------------------------------------------------------
a---------------------------------------------------------------------
e---------------------------------------------------------------------

    Cadd2

e-----------------------0----------------------0----------------------
b------------3------------------3--------3----------------------------
g-------------------0----------------0--------------------------------
d---------------------------------------------------------------------
a---3------------------------------------------------3-------2--------
e---------------------------------------------------------------------

    A7sus4
e---------------------0-------------------------0---------------------
b-----------3-------------------3----------3----------------3---------
g----------------0--------------------0-------------------------------
d---------------------------------------------------------------------
a---0-----------------------------------------------------------------
e---------------------------------------------------------------------

chorus

   G
e-------0--------------2-----------3--------------2-----------3--------
b-----------3--------------3-----------3--------------3------------3---
g---------------0----------------0-----------0-----------0------------0
d----------------------------------------------------------------------
a----------------------------------------------------------------------
e--3-------------------------------------------------------------------

   Cadd2
e-------3--------------2------------0-------------2-----------3--------
b-----------3--------------3------------3-------------3------------3---
g---------------0----------------0------------0----------0------------0
d----------------------------------------------------------------------
a--3-------------------------------------------------------------------
e----------------------------------------------------------------------

   G
e-------3--------------2-----------0--------------2-----------3--------
b-----------3--------------3-----------3--------------3------------3---
g---------------0----------------0-----------0-----------0------------0
d----------------------------------------------------------------------
a----------------------------------------------------------------------
e--3-------------------------------------------------------------------

   Cadd2
e-------3--------------2------------0--------------2----------3--------
b-----------3--------------3------------3--------------3-----------3---
g---------------0----------------0------------0-----------0-----------0
d----------------------------------------------------------------------
a--3-------------------------------------------------------------------
e----------------------------------------------------------------------

   D
e------2-----------2----------2------------2--------2h3p2--------------
b----------3-----------3----------3------------3----------------3------
g|-------------2-----------2----------2------------------------------2-
d|-0-------------------------------------------------------------------
a----------------------------------------------------------------------
e----------------------------------------------------------------------

1,2,3_________________________________________
     Cadd2
e-----------------------0--------------------0-------------------------
b--------------3--------------3----------3------3----------------------
g---------0--------0--------------0------------------------------------
d----------------------------------------------------------------------
a----3-----------------------------------------------------------------
e----------------------------------------------------------------------

     4._______________________________________________________
     Cadd2
e-------------------------0-----------------0--------------------------
b--------------3------------3--------3---------------------------------
g---------0--------0------------0-------------------------------------|
d---------------------------------------------------------------------|
a----3---------------------------------------------3-------2-----------
e----------------------------------------------------------------------

  A7sus4
e-------------------0-------------------------------------------------
b----------3-----------3---3------------------------------------------
g------0------0------------0------------------------------------------
d---------------------------------------------------------------------
a--0-----------------------0------------------------------------------
e---------------------------------------------------------------------
  

Send any requests to 
Comments