Jars Of Clay - Fly Chords & Tabs

 

Fly Chords & Tabs

Jars Of Clay Chords & Tabs

Version: 1 Type: Tab 0 ratings
1 star 2 stars 3 stars 4 stars 5 stars
comments

Fly Tab

Hey guys, this is my first tab so i know it's not correct. advise 
if there's something wrong at stellarxecho@hotmail.com

Standard tuning

Intro
|-------4--------------4---------0------
|-2-3-2---(ring)-0-2-0-----0-2-3--(2x)-- (ring)
|---------------------------------------
|---------------------------------------
|---------------------------------------
|---------------------------------------
(2nd guitar)
|------------------------------
|------------------------------
|-----9---------------11-9-----
|-7---9---------------11-9-----
|-7---7---------------9--7-----
|-5----------------------------

verse (sounds like all bass most of the time)
|------------------
|------------------
|----9-------7-----
|-7--9--9----7-----
|-7--7--9----5-----
|-5-----7----------2x
[ Tab from: http://www.guitartabs.cc/tabs/j/jars_of_clay/fly_tab.html ]
|-----------------------
|-----------------------
|-----9---7------------
|-9---9---7----99999999-
|-9---7---5----99999999-
|-7------------77777777

Chorus
|----------------------------------------------
|----------------------------------------------
|-----------99999999--------------77777777-----
|-77777777--99999999--99999999----77777777-----
|-77777777--77777777--99999999----55555555-----
|-55555555------------77777777-----------------2x

(2nd time)
|-------------4-----------
|-------0-2-0------------- (ring)
|----9------------11--9---
|-7--9------------11--9---
|-7--7------------9---7---
|-5-----------------------

after second chorus (end of this part is confusing)
|------------------------------
|------------------------------
|-4---6---7---8---4------------
|-4---6---7---8---4------------
|-2---4---5---6---2?-----------
|------------------------------

play the chorus all the way through
ending chord is (0577xx)
Comments