Jars Of Clay - Disappear Chords & Tabs

 

Disappear Chords & Tabs

Jars Of Clay Chords & Tabs

Version: 1 Type: Tab 0 ratings
1 star 2 stars 3 stars 4 stars 5 stars
comments

Disappear Tab

   
Jars of Clay
CD: The Eleventh Hour
Song: Disappear

Standard Tuning

i'm not real sure about that first harmonic, but it's close

Intro:
(there is a strumming pattern to it, but it would take too long to 
write it out)
E-----5-4-----9-7-5-5-4-----9-7-9-7-5-
b-12*-----2-0-----------2-0-----------
g-------------------------------------
d-------------------------------------
a-------------------------------------
e-------------------------------------
[ Tab from: http://www.guitartabs.cc/tabs/j/jars_of_clay/disappear_tab.html ]
Verses:
(listen to cd for strumming pattern)
E----- |
b----- |
g-----.|
d-7-4-.|
a-7-4- |
e-5-2- |

Chorus:
(listen to cd for strumming pattern)
E---------- |
b---------- |
g----------.|
d-2-7-9-12-.|
a-2-7-9-12- |
e-0-5-7-10- |

Solo:
(listen to cd for strumming pattern)
E-5-4-----9-7-9-7-5-
b-----2-0-----------
g-------------------
d-------------------
a-------------------
e-------------------

Breakdown:
(listen to cd for strumming)
E----- | 
b----- |
g-----.|
d-5-2-.|
a-5-2- |
e-3-0- |

Ending=Chorus

Enjoy, Shorty14



Comments