Janis Joplin - Piece Of My Heart Chords & Tabs

 

Piece Of My Heart Chords & Tabs

Janis Joplin Chords & Tabs

Version: 1 Type: Tab 0 ratings
1 star 2 stars 3 stars 4 stars 5 stars
comments

Piece Of My Heart Tab

Play with distortion.
[ Tab from: http://www.guitartabs.cc/tabs/j/janis_joplin/piece_of_my_heart_tab.html ]
E------------------------------------------------------|
B-----------------------------5------------------------|
G4---42-2-4-2--------------6------6----8--8----9-------|
D------4-------4-2--4---7--------------9--9----9--9/11-|
A------------------------------------------------------|
E------------------------------------------------------|

E----------11---------------14/17------11/8---9---7/5--5--|
B-----7-7-----7-------11-11-------------------------------|
G--8----------------11--------------11-----9----8---6---4-|
D9----------------12--------------------------------------|
A---------------------------------------------------------|
E---------------------------------------------------------|
Comments