Janez Detd - Anti Anthem Chords & Tabs

 

Anti Anthem Chords & Tabs

Janez Detd Chords & Tabs

Version: 1 Type: Bass Tab 0 ratings
1 star 2 stars 3 stars 4 stars 5 stars
comments

Anti Anthem Bass Tab

   
Tabbed by Renzys

Janez Detd

Anti-Athem

intro:

G|-------------------------------------------------------9--9--9--9-\-8-----|
D|--------------------------------------------------------------------------|
A|------------------------------------------/6-6-6-6-6-6--------------------|
E|---------------7-7-7-7-7-9--9--9--9--9--9---------------------------------|
x4


Verse

G|-------|
D|-------|
A|-6-----|
E|---6-4-|


verse2
[ Tab from: http://www.guitartabs.cc/tabs/j/janez_detd/anti_anthem_btab.html ]
G|-----------------------------------------------------------------|
D|-----------------------------------------------------------------|
A|-6-6-6-6-6-----------3-3-3-3-3-------------6-6-6-6-6-------------|
E|-----------6-6-6-6-6-----------4-4-4-4-4-4-----------6-6-6-6-6-4-|


Chorus:

G|---------------------------------------------------|
D|---------------------------------------------------|
A|-6-6-6-6-6-6-4-4-4-4-4-6-6-6-6-6-2-2-2-2-/-4-4-4-4-|
E|-----------------------4-4-4-4-4-------------------|

Brige:

G|-----------------------------6-6-6-6-6-|
D|---------------------------------------|
A|-6-6-6-6-6-6-6-6-6-6-3-3-3-3-----------|
E|---------------------------------------|
Comments