Janes Addiction - Stop Chords & Tabs

 

Stop Chords & Tabs

Janes Addiction Chords & Tabs

Version: 1 Type: Tab 0 ratings
1 star 2 stars 3 stars 4 stars 5 stars
comments

Stop Tab

#----------------------------------PLEASE NOTE---------------------------------#
#This file is the author's own work and represents their interpretation of the #
#song. You may only use this file for private study, scholarship, or research. #
#------------------------------------------------------------------------------#


From: graeberd@student.msu.edu  (Mr. G. )
[ Tab from: http://www.guitartabs.cc/tabs/j/janes_addiction/stop_tab.html ]
"Stop"
                                Janes Addiction
                                                                                
---------------------------------------------------------||---------------------
---------------------------------------------------------||---------------------
--------------------------------------------------------*||--------------9------
7--7--7--7--7--7--5/7--7--7--7--7--7--7--9---9---9---9--*||--7--7--7--5--7------
9--9--9--9--9--9--7/9--9--9--9--9--9--9--11--11--11--11--||--9--9--9--7---------
---------------------------------------------------------||---------------------
                                                                                
                                                                                
----------------------------------------------------------||---------------------
----------------------------------------------------------||---------------------
-\7---------------------9--9--7--------------9\7---------*||---------------------
\-5--5/7----7--7--7--5--7--7--5--7--7--7--5--7\5-5/7--2--*||---------------------
-----7/9----9--9--9--7-----------9--9--9--7------7/9--2---||---------------------
------------------------------------------------------0---||---------------------
                                                                                
================================================================================
==                           TABLATURE EXPLANATION                            ==
================================================================================
----------                            ----------
----5h8--- Hammeron                   ----(8)--- Ghost Note
----------                            ----------
----5p8--- Pulloff                    ----------
----------                            ----------
----5/8--- Slide Up                   -----x---- Dead Note
----------                            ----------
----5\8--- Slide Down                 ----------
----------                            ||------|| Repeat Start & End
----5~~~-- Vibrato                    ||*----*||
----------                            ||*----*||
----------                            ||------||
Rhythm:
  w = whole note            W = dotted whole
  h = half note             H = dotted half
  q = quarter note          Q = dotted quarter
  e = eighth note           E = dotted eighth
  s = sixteenth note        S = dotted sixteenth
  ^ = triplet
================================================================================
==           Created with a shareware version of the BUCKET 'O TAB            ==
==                  tablature creation software for Windows                   ==
==                           For more information:                            ==
==                          email: gse@ocsystems.com                          ==
==      US Mail: The Bucket, 3176-B5 Summit Square Dr., Oakton, VA 22124      ==
================================================================================
This is the first time I tried using this program.  Please excuse me if you
can't read it or anything.


/\/\/\/\/\/\/\/\/\/\/\/\/\/\/\/\/\/\/\/\/\/\/\/\/\/\/\/\/\/\/\/\/\/\/\/\/\/\/\
(drum roll please...) 
Mr. G.                               I have a window in my office!
(thank you...thank you all)                                    
and if you must know
Dan Graeber    Dept of Microbiology
      Center For Microbial Ecology    Michigan State University
\/\/\/\/\/\/\/\/\/\/\/\/\/\/\/\/\/\/\/\/\/\/\/\/\/\/\/\/\/\/\/\/\/\/\/\/\/\/\/\
Comments