Janes Addiction - Ocean Size Chords & Tabs

 

Ocean Size Chords & Tabs

Janes Addiction Chords & Tabs

Version: 1 Type: Tab 0 ratings
1 star 2 stars 3 stars 4 stars 5 stars
comments

Ocean Size Tab

Ocean Size - Jane's Addiction (Nothing's Shocking)
[ Tab from: http://www.guitartabs.cc/tabs/j/janes_addiction/ocean_size_tab.html ]
Intro (play it two times)
-----------------0-----------|--------------0-----------|--------------0-----------|
----------0--------0-------0-|--------0-------0-------0-|--------0-------0-------0-|
-------4----4--------4---4---|-----3----3-------3---3---|-----2----2-------2---2---|
-----5--------5--------5-----|---4--------4-------4-----|---3--------3-------3-----|
-3/5-------------------------|-4------------------------|-3------------------------|
-----------------------------|--------------------------|--------------------------|
Play this to finish the first time                      (--------------------------) 
------------------------|                                             /
--------0---------------|                                            /  
-----1----1----1-2-3----|                                           /   
---2--------2--2-3-4----|                                          /  
-2-------------2-3-4----|                                         /     
------------------------|                                        /    
And this to finish the second, play this instead of >>>>>>>>>>>>>
--------------0-------0--|
-------0-------0------0--|
-----2---2------2-----2--|
---3-------3-----3----3--|
-3--------------------3--|
---------------------(0)-|
Verse
-------x-x-x-x--x-x-x-x--x-5--3-3----|				
-------x-x-x-x--x-x-x-x--x-5--3-3----|			         
-1--1--x-x-4-4--x-6-6-6--x-6--4-4----|    			
-2--2--x-x-5-5--x-7-7-7--7-x--5-5----|     			
-2--2--x-x-5-5--x-7-7-7--7-x--5-5----|         			
-0--0--x-x-3-3--x-5-5-5--5-x--3-3----|                
                         * you can play that or these notes or just mute the strings
                           with your right hand 
-0--0--00--x-3-3--x-5555555--3-3-3---|				
-0--0--00--x-3-3--x-5555555--3-3-3---|			        
-1--1--11--x-4-4--x-6666666--4-4-4---|    			
-2--2--22--x-5-5--x-7777777--5-5-5---|     			
-x--x--xx--x------x-xxxxxxx--x-x-x---|         			
-x--x--xx--x------x-xxxxxxx--x-x-x---| 
any suggest or correction to aguglielmone@yahoo.com
Comments