Janes Addiction - Jane Says Chords & Tabs

 

Jane Says Chords & Tabs

Janes Addiction Chords & Tabs

Version: 5 Type: Tab 0 ratings
1 star 2 stars 3 stars 4 stars 5 stars
comments

Jane Says Tab

   
Normal Tuning
| /  slide up
| \  slide down
| h  hammer-on
| p  pull-off
| ~  vibrato
| +  harmonic
| x  Mute note

[ Tab from: http://www.guitartabs.cc/tabs/j/janes_addiction/jane_says_tab_ver_5.html ]
e-----3-3--0-0---------0
a-----3-3--2-2-2-3-2-0-2
d-4-4-4-4--2-2-2-2-2-2-2
g-5-5-5-5--2-2---------2
b-5---------------------
e-3---------------------
 "Jane Says.............
..I'm done with sergio......"


e-3-3-3---0-0---0-0-0-0
a-3-3-3-0-2-2-2-2-2-2-2
d-0-0-0-0-2-2-2-2-2-2-2
g-0-0-0-0-2-2---2-2-2-2
b-2-2-2---0-0---0-0-0-0
e-3-3-3----------------
 "I'm gonna kick tomarrow...."



There it is. Simple, but cool to play.
Comments