Janes Addiction - I Would For You Chords & Tabs

 

I Would For You Chords & Tabs

Janes Addiction Chords & Tabs

Version: 1 Type: Bass Tab 0 ratings
1 star 2 stars 3 stars 4 stars 5 stars
comments

I Would For You Bass Tab

   
I Would For You {Correction}
Jane's Addiction
Jane's Addiction
Tabbed By Larry

	NOTE==> Each BLOCK (|--X--|), no matter it's lenght, it represents 4 TIMES (measurement)

	* MAIN RIFF

G:|----6-6----6----|----4-4---4----|
D:|----7--------7--|----5-------5--|:
A:|----------------|---------------|:
E:|-5-------5----5-|-3------3----3-|

	Repeat during the whole song, with minimal variations.

Suggs, comms, corrections, bad words: rhimorse@hotmail.com

AMOR Y PAZ

----------------------------------------------------------------
	{Previous Tab}
		
From: Enrique I. VĂ©lez (trecool@tld.net)
Song: "I Would for You"
Words & Music by Jane's Addiction

Bass Tab:
[ Tab from: http://www.guitartabs.cc/tabs/j/janes_addiction/i_would_for_you_btab.html ]
This song is mostly just bass, although there's a bit of keyboard playing in the background.

Main riff:

   Bb              G#              Bb              G#           
        
G-------------------------------------------------------------------------
D-----0-0------0----------------------0-0------0--------------------------
A--1---1---1-1--1-----3-3------3---1---1---1-1--1-----3-3------3----------
E----------------0-4---4---4-4--4-0--------------0-4---4---4-4--4-0-------

Play this during the entire song. Sometimes there are little variations, which I don't care to write down.

The keyboard just plays the chords accordingly, although adding a 7th, thus making them Bb7 and G#7.

Send any comments to trecool@tld.net.

Comments