Janes Addiction - Been Caught Stealing Chords & Tabs

 

Been Caught Stealing Chords & Tabs

Janes Addiction Chords & Tabs

Version: 1 Type: Tab 0 ratings
1 star 2 stars 3 stars 4 stars 5 stars
comments

Been Caught Stealing Tab

Been Caught Stealin (Jane's Addiction)

In the Beginning, there was Jane's......

    I'm sorry, Pete, but I think you were a little bit off w/BCS. My old
band used to play it, but considered it too commercial to defame Jane's
by playing it live... broken into sections, this is how I play it...

intro/verse (there's A LOT of scruff in the verse)
4-3-|-5-55-55-5--55-5-5---5----------------------------------------------
3-2-|-6-65-65-6--65-5-6---8-88-88-----------------------------------------
3-2-|-7-75-75-7--75-5-7--77-77-77-----------------------------------------
3-2-|-5------5--5---5---5---5--55-----------------------------------------
----|---------------------------------------------------------------------
----|---------------------------------------------------------------------
[ Tab from: http://www.guitartabs.cc/tabs/j/janes_addiction/been_caught_stealing_tab.html ]
chorus
---------------------55-55-55-------5----4-3------------------------------
-------3-5-3---------66-66-56-------4----3-2------------------------------
55--5--3-5-3---------77777557-5-x-xx4----3-2------------------------------
55--5--3-5-3-3-5-------5--5---5-x-xx4----3-2------------------------------
33--3--------x-5--------------3-x-xx--------------------------------------
-------------1-3-33-3-----------------------------------------------------

have a blast w/it and remember, play it your way, and play it sloppy,
you can't be precise and scientific w/ Jane's and have it sound natural.
    If I'm wrong about this semi-transcription, feel free to blast me,
but keep in mind... have you ever seen two people play "Blackbird" the
same way...?
                                        -Raphrat
====
Comments