Jamisonparker - Best Mistake Chords & Tabs

 

Best Mistake Chords & Tabs

Jamisonparker Chords & Tabs

Version: 1 Type: Tab 0 ratings
1 star 2 stars 3 stars 4 stars 5 stars
comments

Best Mistake Tab

this is only the guitar 2 tabs.i havent figured out the guitar 1 yet. im not saying this 
100% correct but i thought i'd post this because no website has it anywhere.


verse 1
-10-9-----9-----9-----9-----9-10-10-|
------10----10----10----10----------|
------------------------------------|
------------------------------------|   x12
------------------------------------|
------------------------------------|

Chorus
-10-9----10-9----10-9----10-9----10-9-----|
------10------10------10------10------10--|
------------------------------------------|
------------------------------------------|   x4
------------------------------------------|
------------------------------------------|

verse 2
-10-9-----9-----9-----9-----9-10-10-|
------10----10----10----10----------|
------------------------------------|
------------------------------------|   x4
------------------------------------|
------------------------------------|
[ Tab from: http://www.guitartabs.cc/tabs/j/jamisonparker/best_mistake_tab.html ]
verse cont.
--------------------------------------------------|
9/10-7~7~~----------------9/10-7~7~~--------------|
----------9-9-11-9-7-9-7------------9-9-11-11-9-7-|
--------------------------------------------------|   x3
--------------------------------------------------|
--------------------------------------------------|

Chorus
-10-9----10-9----10-9----10-9----10-9-----|
------10------10------10------10------10--|
------------------------------------------|
------------------------------------------|   x8
------------------------------------------|
------------------------------------------|

bridge
-9-10/17--15-14/10--|
--------------------|
--------------------|
--------------------|
--------------------|
--------------------|

Chorus
-10-9----10-9----10-9----10-9----10-9-----|
------10------10------10------10------10--|
------------------------------------------|
------------------------------------------|   x8
------------------------------------------|
------------------------------------------|

Chorus cont.
-10-9-----9-----9-----9-----9-10-10-|
------10----10----10----10----------|
------------------------------------|
------------------------------------|   x4
------------------------------------|
------------------------------------|
Comments