Jamiroquai - Stop Dont Panic Chords & Tabs

 

Stop Dont Panic Chords & Tabs

Jamiroquai Chords & Tabs

Version: 1 Type: Bass Tab 0 ratings
1 star 2 stars 3 stars 4 stars 5 stars
comments

Stop Dont Panic Bass Tab

00.09
(Heavy Distortion)
G|-------------------|
D|------------------*|
A|-------------------|
E|----------4-------*|
B|---4---4-----4-----|


00.43
G|-------------------------|---------------------------|
D|---------------5---------|---------------7----------*|
A|----------77----------5--|----------77----------55---|
E|--------------3-x3-------|--------------5-x5--------*|
B|--55-x5-x5-----------3---|--55-x5-x5-----------3-----|

01.00
G|------------7-------|----------7--6--7----|
D|---------------5-7--|--------------------*|
A|-77--7-7---5--------|-77--7-7--5--4--5----|
E|--------------3-5---|--------------------*|
B|--------------------|---------------------|

01.09
(Heavy Distortion)
G|-------------------|
D|------------------*|
A|-------------------|
E|----------4-------*|
B|---4---4-----4-----|

01.43
G|-------------------------|---------------------------|
D|---------------5---------|---------------7----------*|
A|----------77----------5--|----------77----------55---|
E|--------------3-x3-------|--------------5-x5--------*|
B|--55-x5-x5-----------3---|--55-x5-x5-----------3-----|
[ Tab from: http://www.guitartabs.cc/tabs/j/jamiroquai/stop_dont_panic_btab.html ]
02.17
G|------------7-------|----------7--6--7----|
D|---------------5-7--|--------------------*|
A|-77--7-7---5--------|-77--7-7--5--4--5----| X2
E|--------------3-5---|--------------------*|
B|--------------------|---------------------|


02.34
G|-------------------------|----------------------------|
D|---------------5---------|---------------7-----------*|
A|----------77----------5--|----------77----------5-----|
E|--------------3-x3-------|--------------5-x5---------*|
B|--55-x5-x5-----------3---|--55-x5-x5-----------3-3----|

02.51
(Heavy Distortion)
G|-------------------|
D|------------------*|
A|-------------------|
E|----------4-------*|
B|---4---4-----4-----|

03.06
G|--------------------|
D|-------------------*|
A|--------------------|
E|-xxxxxxxxxxxxxxxx--*|
B|--------------------|

03.08
YOU DO NOT PLAY! You come in at...

03.25 with,
G|-------------------------|------------------------------|
D|---------------5---------|---------------7-------------*|
A|----------77----------5--|----------77----------55--5---|
E|--------------3-x3-------|--------------5-x5-----------*|
B|--55-x5-x5-----------3---|--55-x5-x5-----------3--3-----|


03.42
G|--------------------|
D|-44--2-------------*|
A|--------------------|
E|---------0-0-x0----*|
B|--------(5-5-x5)----|
Comments