Jamiroquai - Starshild Chords & Tabs

 

Starshild Chords & Tabs

Jamiroquai Chords & Tabs

Version: 1 Type: Bass Tab

Starshild Bass Tab

Tabbed by Noariņo.

Bass Starshild - Jamiroquai

Couplet
G|-----------------------------------| 
D|------------x7-x9------------------| 
A|------5-7-9-------x---x567-7-------| 
E|--5-7--------------77-------x7-----|

[ Tab from: http://www.guitartabs.cc/tabs/j/jamiroquai/starshild_btab.html ]
Bridge
G|--------------------------------------------------------| 
D|--------9-11--11-------4-6--6----------11-13--13--------| 
A|---9-11-----------4-6----------11-13-------------7-7-5--| 
E|-9--------------4-----------11-------------------------8|


Refrain
G|---------------------------------------------------------------------| 
D|---------7-9--9----------12-14--14---------9-11--11-------4-6-6------| 
A|-----7-9-----------12-14--------------9-11------------4-6-------6-4--| 
E|-7-7------------12-----------------9---------------4---------------7-|