Jamiroquai - Soul Education Chords & Tabs

 

Soul Education Chords & Tabs

Jamiroquai Chords & Tabs

Version: 1 Type: Bass Tab 0 ratings
1 star 2 stars 3 stars 4 stars 5 stars
comments

Soul Education Bass Tab

Intro (play 4x)
|-------------------------------------|
|---------------------------------5/6-|
|---5-7-----5-7-----5-7-----5-7-------|
|-7-------7-------7-------7-----------|

 Verse
|-------------------------------------|
|----2-----5----------5------5------3-|
|-------------------------------------|
|-0-----3----3-----3----3-----000-1---|

 Chorus (play 4x)                                              |****|
|--------------------------------|---5---5---5---5---4---4---4---7h9|
|---2---2---2---2---5---5---5---5|----------------------------------|
|--------------------------------|-3---3---3---3---2---2---2--------|
|-0---0---0---0---3---3---3---3--|----------------------------------|

 Intro (play twice, replace the very last slide with slide E-|-12-|)

 Verse 2
|-------------------------------------|
|----2-----5---(5)---5----5----5----3-|
|-------------------------------------|
|-0-----3----3----3----3----3----1----|
[ Tab from: http://www.guitartabs.cc/tabs/j/jamiroquai/soul_education_btab.html ]
 Break (play 2x) 
|-------------------------------------4-|------------------------------------4-|
|----2-----5-----5-----5---5----(5)-3---|----2-----5---------5----5----(5)-3---|
|---------------------------------------|--------------------------------------|
|-0-----3----3----00/3------00/3--------|-0-----3----3---3--3--3---1113--------|

 Chorus 2 (play 4x)
|--------------------------------|---5---5---5---5---4---4---4-7h9--|
|---2---2---2---2---5---5---5---5|-------------------------------(9)|
|--------------------------------|-3---3---3---3---2---2---2--------|
|-0---0---0---0---3---3---3---3--|----------------------------------|

 Intro (play 6x)
 Chorus 3 (Chorus 2 until fade-out)


いいいいいいいいいいいいい
いいいいいいいいいいいいい

 Variations:

 Last two lines of Verse 1                    Chorus 1 (all 4 |****| endings)
|-------------------------------------|      |---7h9|  |---4--|  |---7h9|  |-4p2p0|               
|----2-----5---------55--5---------3--|      |------|  |------|  |------|  |------|
|-------------------------------------|      |------|  |-2----|  |------|  |------|
|-0-----3----3----3----3-----000-1----|      |------|  |------|  |------|  |------|

|-------------------------------------|
|----2-----55--------5---5------------|
|-------------------------------------|
|-0-----3----3----3----3-----000------|
Comments