Jamiroquai - Revolution Chords & Tabs

 

Revolution Chords & Tabs

Jamiroquai Chords & Tabs

Version: 1 Type: Bass Tab 0 ratings
1 star 2 stars 3 stars 4 stars 5 stars
comments

Revolution Bass Tab

JAMIROQUAI

Revolution 1993

Album: Emergency on planet earth
Played by: Stuart Zender
Tabbed by: Fjon (fjonklein@excite.com)
[ Tab from: http://www.guitartabs.cc/tabs/j/jamiroquai/revolution_btab.html ]
This is not easy to play. Play it slowly a couple of times, and then 
speed up. It sounds like its played on a synth bass with a normal bass 
backing it up. You'll have to tune your bass down a step!
Here's the main Riff:

Gb|------------------|-----------------|------------------|
Db|-/4--2------------|---------2-------|-/4--2------------|
Ab|-------4p2-0------|---2---4---2p0---|-------4p2-0------|
Eb|-------------2--0-|-0---0---------2-|-------------2--0-|

Gb|-------------------|
Db|---------2---------|
Ab|---0---4---2-------|
Eb|-2---2-------5-0-2-|

Comments