Jamiroquai - Morning Glory Chords & Tabs

 

Morning Glory Chords & Tabs

Jamiroquai Chords & Tabs

Version: 1 Type: Bass Tab 0 ratings
1 star 2 stars 3 stars 4 stars 5 stars
comments

Morning Glory Bass Tab

Main Riff (mostly through the whole song)
 A - var.1
|----------------------|----------------------------------|
|----------------------|--------------11--13--------------|
|-------------9--11----|-11---13--14----------------------|
|-9---11--12-----------|----------------------------------|
 B - var.2
|----------------------|------------------------11--------|
|----------------------|--------------11--13-------13--11-|
|-------------9--11----|-11---13--14----------------------|
|-9---11--12-----------|----------------------------------|
 C - var.3
|----------------------|------------------------11--------|
|----------------------|---------------11--13------13-116|
|-------------9--11----|-11---13--14----------------------|
|-9---11--12-----------|----------------------------------|
 D - var.4
|----------------------|----------------------------------|
|----------------------|--------------11--13----11--------|
|-------------9--11----|-11---13--14------------------11--|
|-9---11--12-----------|----------------------------------|
 E - var.5
|----------------------|------------------------11--------|
|----------------------|--------------11--13--------13----|
|-------------9--11----|-11---13--14----------------------|
|-9---11--12-----------|----------------------------------|

 Special Riffs (played only once or twice)
 1 - var.1
|----------------------|----------------------------------|
|----------------------|--------------11--13----11p9------|
|-------------9--11----|-11---13--14----------------------|
|-9---11--12-----------|----------------------------------|
 2 - var.2
|----------------------|----------------------------------|
|----------------------|--------------11--13-------11h13--|
|-------------9--11----|-11---13--14----------------------|
|-9---11--12-----------|----------------------------------|
 3 - var.3
|----------------------|------------------------11----11--|
|----------------------|--------------11--13-------13---13|
|-------------9--11----|-11---13--14----------------------|
|-9---11--12-----------|----------------------------------|
 4 - var.4
|----------------------|----------------------------------|
|----------------------|--------------11--13--------11p8--|
|-------------9--11----|-11---13--14----------------------|
|-9---11--12-----------|----------------------------------|
[ Tab from: http://www.guitartabs.cc/tabs/j/jamiroquai/morning_glory_btab.html ]
Comments