Jamiroquai - Love Foolosophy Chords & Tabs

 

Love Foolosophy Chords & Tabs

Jamiroquai Chords & Tabs

Version: 1 Type: Bass Tab 0 ratings
1 star 2 stars 3 stars 4 stars 5 stars
comments

Love Foolosophy Bass Tab

Jamiroquai
**********
Love Foolosophy

Written By:J.K/T.Smith
Bass Player:Nick Fyffe

Hi Jam fans,
	    This is the bass for "Love Foolosophy". One of the
more advanced bass lines on this album (definatley the funky
track), but if you listen carefully to the record you won't have
any trouble.

Note: p - means pop the note

ENJOY
Si Merrick

Intro - 8 Bars Drums/Guitar

G:|-----------------||
D:|-----------------||
A:|-----------------||
E:|--------------14\||


Verse

G:|-----4----4------|-----------------|----5----x5------|
D:|-----------------|--2----------2---|-----------------|
A:|-2------------2--|-----------------|-3-----------3---|
E:|-----------------|-0-----0---0-----|-----------------|

G:|-----4-----------|-----4----4------|-----------------|
D:|--------4------0-|-----------------|--2-----------2--|
A:|-2--------0-2----|-2------------2--|-------------2---|
E:|-----------------|-----------------|-0-----0---0-----|

G:|----5----x5------|-----44----------|-----4----4------|
D:|-----------------|--------4-----0--|-----------------|
A:|-3-----------3---|-2--------0-2---2|-2------------2--|
E:|-----------------|-----------------|-----------------|

G:|-----------------|----5----x5------|----4------------|
D:|--2----------2---|-----------------|-------4-----00-2|
A:|-----------------|-3-----------3---|-2-------0-2-----|
E:|-0-----0---0-----|-----------------|-----------------|

G:|-----4----4------|-----------------|----5----x5------|
D:|-----------------|--2----------2---|-----------------|
A:|-2------------2--|-----------------|-3-----------3---|
E:|-----------------|-0-----0---0-----|-----------------|

       p
G:|---x4------------||
D:|-------4-----0---||
A:|-2-------0-2---2-||
E:|-----------------||

Chorus
			           p
G:|-----------------|--------------11-|--------------6--|
D:|-----------------|-4-----0-2-4-----|-----------------|
A:|-2---2----2-5----|-----------------|-4----4----x4----|
E:|----------------2|-----------------|-----------------|
[ Tab from: http://www.guitartabs.cc/tabs/j/jamiroquai/love_foolosophy_btab.html ]
						   p  p
G:|-----------------|-----------------|------------11-11|
D:|---2----4---5----|-----------------|-4----0-2-4------|
A:|--------------x0-|-2---2-----2-5---|-----------------|
E:|-0---22---3------|----------------2|-----------------|

G:|--------------6--|-----------------||
D:|-----------------|---2----4---5----||repeat
A:|-4----4----x4----|--------------x0-||
E:|-----------------|-0---22---3------||

M8

G:|-------------4---|-----------------|-------------5---|
D:|-----------------|-------------2---|-----------------|
A:|-22-22-2-2-2-----|-----------------|-33-33-3-3-3-----|
E:|-----------------|-00-00-0-0-0-----|-----------------|

G:|-------------4--2|-------------4---|-----------------|
D:|-----------------|-----------------|-------------2---|
A:|-22-22-2-2-2--0--|-22-22-2-2-2-----|-----------------|
E:|-----------------|-----------------|-00-00-0-0-0-----|

				    p
G:|-------------5---|-------------4-2-|-----------------|
D:|-----------------|-----------------|-----------------|
A:|-33-33-3-3-3-----|-22-22-2-2-2-----|-----------------|
E:|-----------------|-----------------|-----------------|

G:|-------------4---|-----------------|-------------5---|
D:|-----------------|-------------2---|-----------------|
A:|-22-22-2-2-2-----|-----------------|-33-33-3-3-3-----|
E:|-----------------|-00-00-0-0-0-----|-----------------|

G:|-------------4--2|-------------4---|-----------------|
D:|-----------------|-----------------|-------------2---|
A:|-22-22-2-2-2--0--|-22-22-2-2-2-----|-----------------|
E:|-----------------|-----------------|-00-00-0-0-0-----|

G:|-------------5---|-----------------|
D:|-----------------|-----------------|3 Bars no bass
A:|-33-33-3-3-3-----|-22-22-2-2-------|
E:|-----------------|-----------14\---|
				SLOW

G:|--------24\------||
D:|-------------17\-||back to chorus
A:|-----------------||
E:|-----------------||

That's it. One of my favourites off the album, and should be
the next single!

If you have any comments or corrections just e-mail me at:
mrzender69@hotmail.com
Comments