Jamiroquai - Little L Chords & Tabs

 

Little L Chords & Tabs

Jamiroquai Chords & Tabs

Version: 1 Type: Bass Tab 0 ratings
1 star 2 stars 3 stars 4 stars 5 stars
comments

Little L Bass Tab

Jamiroquai
A Funk Odyssey
Little L

Tabbed by pIRHANA

Effect : Distortion

Whole Song
[ Tab from: http://www.guitartabs.cc/tabs/j/jamiroquai/little_l_btab.html ]
G-------------------------------------------------------------------
D-----------------------6----4----3---------------------------------
A--------------6-6--------------------------------------------------
E--------------------4----2----1-----1-1-1/6-6----4-----------------
B-4--4-4-4x-4----------------------------------------4--------------

G-------------------------------------------------------------------
D-----------------------6----4----3---------------------------------
A--------------6-6--------------------------------------------------
E--------------------4----2----1-----1-1-1/4-5-6-6----4-------------
B-4--4-4-4x-4--------------------------------------------4----------

Comments