Jamiroquai - Deeper Underground Chords & Tabs

 

Deeper Underground Chords & Tabs

Jamiroquai Chords & Tabs

Version: 2 Type: Tab 0 ratings
1 star 2 stars 3 stars 4 stars 5 stars
comments

Deeper Underground Tab

   
#----------------------------------PLEASE NOTE--------------------------------#
#This file is the author's own work and represents their interpretation of the#
#song. You may only use this file for private study, scholarship, or research.#
#-----------------------------------------------------------------------------#
#-- File created with Instab - http://www.pconline.com/~smcarey/instab.html --#
#-----------------------------------------------------------------------------#

Author/Artist: Jamiroquai
Title: Deeper Underground
Album: Synchronised
Transcribed by: Mat
Email: Everyth1ng_zen@hotmail.com

This is only the first couple of verses, i had to work it out by the bass tab, 
it's pretty much the same, the chorus is this weird distorted wah, and the 
bridge has me stumped. The 3rd verse has a solo behind the normal
bassline, any corrections, complaints, rantings, praise accepted at the 
address. Mat (c: 
[ Tab from: http://www.guitartabs.cc/tabs/j/jamiroquai/deeper_underground_tab_ver_2.html ]
-------------|----------------------------------------------------------------
-------------|----------------------------------------------------------------
-------------|----------------------------------------------------------------
-------------|----------------------------------------------------------------
----8--7-----|----------------------------------------------------------------
-9--------6--|----------------------------------------------------------------
                intro and bit after chorus, (x4)                              

------------------------------------------------------------------------------
------------------------------------------------------------------------------
------------------------------------------------------------------------------
------------------------------------------------------------------------------
--------------------/9--7----------------10--7--9---7-------------------------
-9-7--9-7--10--10----------10-10-----------------------9--7-------------------
                                        |this bit  very fast|                 

Comments