Jamiroquai - Cosmic Girl Chords & Tabs

 

Cosmic Girl Chords & Tabs

Jamiroquai Chords & Tabs

Version: 2 Type: Bass Tab 0 ratings
1 star 2 stars 3 stars 4 stars 5 stars
comments

Cosmic Girl Bass Tab

JAMIROQUAI

Cosmic Girl

Album: Travelling Without moving
Played by: Stuart Zender
Tabbed by: Fjon (fjonklein@excite.com)


As usual, Stuart plays loads of litle fills throughout, which I'm not 
going to figure out. These are the basic riffs for chorus and verse:

Verse                         Fig. 1       Fig. 2
G|----------|--------------| |----------| |--------|
D|--------2-|2-3-4---------| |----------| |-x/--9\-|
A|------2---|------4-(0)-2-| |----------| |--------|
E|0--x3-----|--------------| |-0--x-3-2-| |--------|
[ Tab from: http://www.guitartabs.cc/tabs/j/jamiroquai/cosmic_girl_btab_ver_2.html ]
Fig.1 is sometimes added on to end the end of the verse
Fig.2 Is played going into the choeus.

Chorus
                                   *
G|--------------|---------------|--x4-----6-|--------| * = sometimes
D|--------4-4---|---------------|-----------|--------| play 4-4
A|--------------|---------------|2----2/4---|4--4--4-| instead
E|-4--2-2-----2-|-2--2--2-2-0-2-|-----------|--------|
 
G|--------------|---------------|--4-4-----6-|-----3---4----6-|
D|--------4-4---|---------------|------------|----------------|
A|--------------|---------------|2-----2/4---|4--1---2---/4---|
E|-4--2-2-----2-|-2--2--2-2-0-2-|------------|----------------|




Comments