Jamestown Story - I Miss You Chords & Tabs

 

I Miss You Chords & Tabs

Jamestown Story Chords & Tabs

Version: 2 Type: Tab 0 ratings
1 star 2 stars 3 stars 4 stars 5 stars
comments

I Miss You Tab

   
----------------------------------------------------------------------------
			     I miss you - And Then I Turned Seven
----------------------------------------------------------------------------
Tabbed by:snowboardride
Email:frankmoebill@hotmail.com


Tuning:F Bb F F Bb F

(intro and verse)
F |-----0-------0-------0-------0--------0-------0-------0-------0----------|
Bb|---0---0---0---0---0---0---0---0----0---0---0---0---0---0---0---0--------|
F |-5-------5------------------------2-------2-------0-------0--------------|
F |-----------------3-------3-----------------------------------------------|
Bb|-------------------------------------------------------------------------|
F |-------------------------------------------------------------------------|

F |-----0-------0-------0-------0-------0-------0-------0-------0------------|
Bb|---0---0---0---0---0---0---0---0---0---0---0---0---0---0---0---0----------|
F |-5-------5-----------------------2-------2-------4-------4----------------|
F |-----------------3-------3------------------------------------------------|
Bb|--------------------------------------------------------------------------|
F |--------------------------------------------------------------------------|

     play that progression for a total of 3 times and at the end(before the chorus)play this part.
[ Tab from: http://www.guitartabs.cc/tabs/j/jamestown_story/i_miss_you_tab_ver_2.html ]
F |-----0-------0-------0-------0-------0------0-------0--------------------|
Bb|---0---0---0---0---0---0---0---0---0---0---0--0---0---0------------------|
F |-0-------0-------0-------0-------0-------0------0-------0----------------|
F |-------------------------------------------------------------------------|
Bb|-------------------------------------------------------------------------|
F |-------------------------------------------------------------------------|


chorus(listen to tune for strumming and timing)

F |-0-0-0-0--0-0-0-0--0-0-0-0--0-0-0-0--------------------------------------|
Bb|-0-0-0-0--0-0-0-0--0-0-0-0--0-0-0-0--------------------------------------|
F |-5-5-5-5--5-5-5-5--2-2-2-2--0-0-0-0--------------------------------------|
F |-5-5-5-5--3-3-3-3--2-2-2-2--5-5-5-5--------------------------------------|
Bb|-0-0-0-0--0-0-0-0--0-0-0-0--7-7-7-7--------------------------------------|
F |-------------------------------------------------------------------------|


Yesterday was full of tears,
 knowing death has just been here
All was lost but not forgot,
the pain controls my every thought
A new day's battle has begun
all was lost and nothing's won
I can't wait to see the day
when the tears all go away....

I miss you, I kissed you,
when we layed you in your grave
I need you to believe you
things were meant to be this way...

Today came with shattered dreams
everything's not what it seems
Don't think death won't come get you
cause it will life's misconstrued
Though my battle's just begun
I'm dropping arms and going to run
I can't wait to see the day
when the tears all go away....

I miss you, I kissed you,
when we layed you in your grave
I need you to believe you
things were meant to be this way...

I did nothing at all(nothing at all)
it's all my fault your gone
Your face on my wall(your face on my wall)
it tells it all
you will live on...


thats basically the hole song.At the end, the last part, its the same chords as the 
but different strumming.

Well that was my first tab but i think everything o.k. or close to it...any comments or 
let me know.
Comments