Jamestown Story - I Miss You Chords & Tabs

 

I Miss You Chords & Tabs

Jamestown Story Chords & Tabs

Version: 1 Type: Tab 0 ratings
1 star 2 stars 3 stars 4 stars 5 stars
comments

I Miss You Tab

Tune string 1 to F

---------0---------------------0-------------------------|
-------------6-----------------------6-------------------|
---------------------------------------------------------|
---8----------------8------------------------------------|
---------------------------------------------------------|
---------------------------------------------------------|

[ Tab from: http://www.guitartabs.cc/tabs/j/jamestown_story/i_miss_you_tab.html ]
---------0---------------------0-------------------------|
-------------6-----------------------6-------------------|
---------------------------------------------------------|
---------------------------------------------------------|
---6----------------6------------------------------------|
---------------------------------------------------------|


---------0---------------------0-------------------------|
-------------6-----------------------6-------------------|
---------------------------------------------------------|
---5----------------5------------------------------------|
---------------------------------------------------------|
---------------------------------------------------------|


---------0---------------------0-------------------------|
-------------6-----------------------6-------------------|
---------------------------------------------------------|
---7----------------7------------------------------------|
---------------------------------------------------------|
---------------------------------------------------------|
Comments