Jamestown Story - Goodbye Im Sorry Chords & Tabs

 

Goodbye Im Sorry Chords & Tabs

Jamestown Story Chords & Tabs

Version: 2 Type: Tab

Goodbye Im Sorry Tab

   
This song is in regular tuning

This is a first fret capo!

-------------------------------------------------------------------------------
			     Goodbye im sorry - and then i turned seven
-------------------------------------------------------------------------------
Tabbed by:Kevin
Email:kgriz@cox.net

Tuning:Regular tuning

1st Fret capo 
The frets tabbed are relative to the capo

[ Tab from: http://www.guitartabs.cc/tabs/j/jamestown_story/goodbye_im_sorry_tab_ver_2.html ]
           This is the little plucking part at the beginning.
e|---------------------------------------------------------------------------|
B|---0----1----3---1---------------------------------------------------------|
G|---0----0----0---0---------------------------------------------------------|
D|---------------------------------------------------------------------------|
A|---------------------------------------------------------------------------|
E|---------------------------------------------------------------------------|

  
   

        G    Gadd9     c5        Em     c5    G   Gadd9  c5   Em  G  Cmaj7
e|------x------x-------x---------0------------------------------------x------|These chords are repeats
B|------0------0-------1---------0------------------------------------0------|
G|------0------2-------0---------0------------------------------------0------|
D|------0------0-------x---------2------------------------------------x------|
A|------x------0-------3----------------------------------------------3------|
E|------3------3-------x----------------------------------------------x------|

This is all i had time to tab out. The rest of the song is some variation of these
chords. 

Also this is my first tab so tell me how i did. 
Listen to the song for the rythem.