Jamestown Story - Goodbye Im Sorry Chords & Tabs

 

Goodbye Im Sorry Chords & Tabs

Jamestown Story Chords & Tabs

Version: 1 Type: Tab 0 ratings
1 star 2 stars 3 stars 4 stars 5 stars
comments

Goodbye Im Sorry Tab

Tabbed by: Taylor C
Email:Taybay14@hotmail.com
Tuning:normal

K Fellow guitar players its not the intro its more of the rest of the song just play it
right. Find the right strums and such and ur golden.............

[ Tab from: http://www.guitartabs.cc/tabs/j/jamestown_story/goodbye_im_sorry_tab.html ]
e|-*-*-*-*-*-*-*-*-*-*--*-*-*-*-*-*-*-*-*-*--0-0-0-0-0-0-0-0-0-0-------------|
B|-*-*-*-*-*-*-*-*-*-*--*-*-*-*-*-*-*-*-*-*--0-0-0-0-0-0-0-0-0-0-------------|
G|-*-*-*-*-*-*-*-*-*-*--5-5-5-5-5-5-5-5-5-5--0-0-0-0-0-0-0-0-0-0-------------|
D|-5-5-5-5-5-5-5-5-5-5--5-5-5-5-5-5-5-5-5-5--2-2-2-2-2-2-2-2-2-2-------------|
A|-5-5-5-5-5-5-5-5-5-5--3-3-3-3-3-3-3-3-3-3--2-2-2-2-2-2-2-2-2-2-------------|
E|-3-3-3-3-3-3-3-3-3-3--3-3-3-3-3-3-3-3-3-3--0-0-0-0-0-0-0-0-0-0-------------|


e|-*-*-*-*-*-*-*-*-*-*--*-*-*-*-*-*-*-*-*-*--*-*-*-*-*-*-*-*-*-*--0-0--*-*--*|
B|-*-*-*-*-*-*-*-*-*-*--*-*-*-*-*-*-*-*-*-*--*-*-*-*-*-*-*-*-*-*--0-0--*-*--*|
G|-5-5-5-5-5-5-5-5-5-5--*-*-*-*-*-*-*-*-*-*--5-5-5-5-5-5-5-5-5-5--0-0--7-7--5|
D|-5-5-5-5-5-5-5-5-5-5--5-5-5-5-5-5-5-5-5-5--5-5-5-5-5-5-5-5-5-5--2-2--7-7--5|
A|-3-3-3-3-3-3-3-3-3-3--5-5-5-5-5-5-5-5-5-5--3-3-3-3-3-3-3-3-3-3--2-2--5-5--3|
E|-3-3-3-3-3-3-3-3-3-3--3-3-3-3-3-3-3-3-3-3--3-3-3-3-3-3-3-3-3-3--0-0--5-5--3|

Then play over and over again i dont know if its the right times u strum it but
its close its hard to count......
Comments