Jamestown Story - Forget Chords & Tabs

 

Forget Chords & Tabs

Jamestown Story Chords & Tabs

Version: 2 Type: Tab 0 ratings
1 star 2 stars 3 stars 4 stars 5 stars
comments

Forget Tab

--------------------------------------------------------------------
			     Forget - And Then I Turned Seven
-------------------------------------------------------------------------------
Tabbed by:Serving_Confusion (Tyler Robinson)
Email:tsrobin@hotmail.com

Tuning:Standard

This Song is a really easy song to learn. I am just a begginer and it took me like and
hour or two to get it down
Just Listen to the song for the strumming. This May Not be exact but its close.The
frets are right
but maybe not the amount of times strummed.
[ Tab from: http://www.guitartabs.cc/tabs/j/jamestown_story/forget_tab_ver_2.html ]
e|---------------------------------------------------------------------------|\
B|---------------------------------------------------------------------------| \
G|---------------------------------------------------------------------------|  \
D|---------------------------------------------------------------------------|   \
A|-10-10-10-10--10--10-------10-10-10-10-10-10-----7-7-7-7--7-7--------------|    \   
E|-8--8--8--8---8---8--------7--7--7--7--7--7------5-5-5-5--5-5--------------|     \        Intro
                                                                                   /
e|---------------------------------------------------------------------------|    / 
B|---------------------------------------------------------------------------|   / 
G|---------------------------------------------------------------------------|  / 
D|---------------------------------------------------------------------------| /
A|--3-3-3-3---5-5-5-5--------------------------------------------------------|
E|--1-1-1-1---3-3-3-3--------------------------------------------------------|

Ok now you go straight from that to playing this. No break they just flow together
Once again listen to the song you will hear it.

e|---------------------------------------------------------------------------|\
B|---------------------------------------------------------------------------| \
G|--------------------------------------5-5-5-5-5-5-5-5----------------------|  \ 
D|--------------------------------------3-3-3-3-3-3-3-3----------------------|  /x2
A|--5-5-5-5-5-5-5-5---3-3-3-3-3-3-3-3---------------------5-5-5-5-5-5-5-5----| /
E|--7-7-7-7-7-7-7-7---1-1-1-1-1-1-1-1---------------------3-3-3-3-3-3-3-3----|/

OK SO THAT IS THE BASE OF THE SONG. AFTER YOU GET THIS FAR IT IS THE SAME FRET SEQUENCE,
JUST A DIFFERENT STRUMMING SEQUENCE.
THE KEY TO LEARNING THIS SONG IS TO JUST LISTEN TO IT!!
Comments