Jamestown Story - Forget Chords & Tabs

 

Forget Chords & Tabs

Jamestown Story Chords & Tabs

Version: 1 Type: Tab 0 ratings
1 star 2 stars 3 stars 4 stars 5 stars
comments

Forget Tab

...And Then I Turned Seven... is an awesome band. They're on purevolume.com so check
them out some time.

...And Then I Turned Seven... - Forget

VERSE:
e|---------------------------------------------|
B|---------------------------------------------|        
G|--5-------5----------------------------------|          
D|--5-------5-------7-------3---5--------------|          
A|--3-------2-------7-------3---5--------------|          
E|------------------5-------1---3--------------|          
                                                          
PRECHORUS:                                       
e|---------------------------------------------|
B|---------------------------------------------|
G|--5------------------------------------------|
D|--5-------5-------7-------5------------------|
A|--3-------5-------7-------5------------------|
E|----------3-------5-------3------------------|

CHORUS:
E|---------------------------------------------|
B|---------------------------------------------|
G|--5------------------------------------------|
D|--5-------5-------7-------3---5--------------|
A|--3-------5-------7-------3---5--------------|
E|----------3-------5-------1---3--------------|

BRIDGE:
E|---------------------------------------------|
B|---------------------------------------------|
G|--5--4-5-----4-5-----4-5-----7-5-------------|
D|--5-------5-------7-------5------------------|
A|--3-------5-------7-------5------------------|
E|----------3-------5-------3------------------|
[ Tab from: http://www.guitartabs.cc/tabs/j/jamestown_story/forget_tab.html ]
Ending:
E|---------------------------------------------|
B|---------------------------------------------|
G|--5-------------------------------5--let--5--|
D|--5-------5-------7-------3---5---5--ring-5--|
A|--3-------5-------7-------3---5---3-------3--|
E|----------3-------5-------1---3--------------|

ORDER:
Verse x2
Prechorus x2
Chorus x2
Verse x3
Prechorus x2
Chorus x2
Bridge x2
Chorus x2
Verse
Ending

Wasted time, wasted breath
And for what there's nothing left
My pillow's crisp, the tears have dried
Her selfish ways, my bloodshot eyes

I used to wake up everyday and hear her voice
But now waking up is not the preferred choice

Holding back the anger and giving up my pride
I wish I could have seen what she would do with her life
Clinging onto sanity, but crossing the line
A new day awakes, with my fake smile

A whole new day, A fresh new start
Forget it ever happen, forgot things fell apart
But now that she's not in my life
Every little thing I see is lost at shine

Countless hours I spent trying to please her
Would the time have been wasted had this not occurred

Holding back the anger and giving up my pride
Staring at her picture with a tear in my eye
It's difficult to hold back all these feelings I hide
Taking in deep breaths I'm too numb inside
Holding back the anger and giving up my pride
Staring at her picture with a tear in my eye
It's difficult to hold back all these feelings I hide
Taking in deep breaths I'm too numb inside

My first tab. If there's mistakes or if it's hard to understand, I'm sorry and am open
to suggestions and corrections. I'm almost 100% sure this is right though. It's a great
song.
Comments