James Taylor - Something In The Way She Moves Chords & Tabs

 

Something In The Way She Moves Chords & Tabs

James Taylor Chords & Tabs

Version: 3 Type: Tab

Something In The Way She Moves Tab

   
Something in The Way She Moves
 by James Taylor

Tabbed By: Sam Borchard


    ____________
   |*          *|
   |    For     |
   |   Emily    |
   |*__________*|


Here's a finger-picked version of the song off of the Greatest Hits album.  It has all
recognizable fills, most of the bass line, and the rest is finger-picking rhythms that
to go well.  It's not exactly what he plays, but I find for solo guitar fingerpicking 
the way through sounds much nicer than the chords.


Enjoy!

CAPO 3rd fret

INTRO
e|-------------------------|---------------------------|
B|-----2-------3-----------|-------2-------3-----------|
G|-----------------0-------|-------------------0-------|
D|---2-----2s4---------4---|---0h2-----2s4---------4---| (Repeat w/hammer on)
A|-0-------0-----0---0---0-|-0---------0-----0---0---0-|
E|-------------------------|---------------------------|
 | 1 + 2 +   3   +   4   + | 1   + 2 +   3   +   4   + |


VERSE
e||------------------------0---------|---------------------------------|
B||------------2---2-3---------2-----|-----------0-----------3-------0-|
G||*-------2-----------2-4-----------|-------0-------0-----2-----0-----|
D||------2-------2---------------2---|-----2-------2---0-----------0---|
A||*-0-------0---------------0-------|---------------------------------|
E||------------------0---------------|-0-------0---------------3-------|
 ||  1 e + a 2 e + a 3 e + a 4 e + a | 1 e + a 2 e + a 3 e + a 4 e + a |
   Theres something in the way she moves       Looks  my  way and calls my
  And if I'm feeling down and blue       or troubled by some foolish

e|-------0---------------0---------|---------------------------------|
B|-----------0-----0h2-------0-----|-------0-------------------------|
G|-----2---------2-------------2---|-----0-----0---------0-------0---|
D|---2---------------------------2-|---2-----------0---0---0---------|
A|-0-------0---0-------0---0-------|-------------------------3-------|
E|---------------------------------|-0-------0---2---3---------------|
 | 1 e + a 2 e + a 3 e + a 4 e + a | 1 e + a 2 e + a 3 e + a 4 e + a |
  name                        That seems to leave this troubled world be-
  game                         she always seems to make me change my

   _________________________________   ________________________________
  | 1.                                | 2.
e|-------0h2p0-----0h2-----0--------||-------0-------------------------|
B|-------3-------3-3-------2p0------||-----------0-----0h2-------------|
G|-----2-------2-----------2-------*||-----2---------2-----------------|
D|-0--------------------------------||---2---------------------2-------|
A|-----------------------------2---*||-0-------0---0-------------------|
E|----------------------------------||---------------------------------|
 | 1 e + a 2 e + a 3 e + a 4 e + a  || 1 e + a 2 e + a 3 e + a 4 e + a |
   hind.                               mind.              And I feel


CHORUS
e||----------------------------------|-------0---------------0---------|
B||----------2-----------0-------3---|-----------0-----0h2-------------|
G||*-------2---2---0-----0-------2---|-----2---------2-----------2-----|
D||------2-------2-------2---0-------|---2-------------------------2---|
A||*-0-------------------------------|-0-------0---0-------0---0-------|
E||------------------0---------------|---------------------------------|
 ||  1 e + a 2 e + a 3 e + a 4 e + a | 1 e + a 2 e + a 3 e + a 4 e + a |
   fine      anytime         shes    around me now              shes a-
   well      you can tell    she's been with me now            she's been

   ___________________________________________________________________
  | 1.
e|---------------------2-----------|----------------------------------||
B|-----------2---------3-----3-----|-----------3-------3-------3------||
G|-------2-------------2---------2-|-------2-------2-------2-------2-*||
D|-----4-----------------------4---|-----4-------4-------4-------4----||
A|-------------4---2-------2-------|-----------------2---------------*||
E|-2-------2-----------------------|-0-------0---------------0--------||
 | 1 e + a 2 e + a 3 e + a 4 e + a | 1 e + a 2 e + a 3 e + a 4 e + a  ||
   round me now            almost   all the time           and if I'm

   __________________________________________________________________
  | 2.
e|-----------2---------------------|---------------------------------|
B|-----2---------------3-----3-----|-----3-----3---------3-------3---|
G|-----2---------2-----2---------2-|-----2---------2-----2-------2---|
D|-----4-------4-------4-------4---|-----4-------4-------4-------4---|
A|-----------------2-------2-------|-----------------2---------------|
E|-2-------2-----------------------|-0-------0---------------0-------|
 | 1 e + a 2 e + a 3 e + a 4 e + a | 1 e + a 2 e + a 3 e + a 4 e + a |
   with me now             Quite a long long time   yes  and I feel

[ Tab from: http://www.guitartabs.cc/tabs/j/james_taylor/something_in_the_way_she_moves_tab_ver_3.html ]
BRIDGE
e|-------0-------------3-------2---|-------0---------------0---------|
B|---------2p0---0-------3-------3-|-----------0-----0h2-------------|
G|-----2-------2-----0-------2-----|-----2---------2-----------2-----|
D|-------------------------0-------|---2-----------------------------|
A|-0-------------------------------|-0-------0---0-------0---0---4---|
E|-----------------3---------------|---------------------------------|
 | 1 e + a 2 e + a 3 e + a 4 e + a | 1 e + a 2 e + a 3 e + a 4 e + a |
   fine

e|-----2---------------3-----------|---------------------0h2---------|
B|-----3-----3---3-----3-----3---3-|-----3-------3-------3---3-------|
G|-----2-------2-------0-------0---|-----0-------0-----2-----2-------|
D|-0-------0-----------------------|-----------------0---------------|
A|-----------------3-------3-------|-2-------3-------------------0---|
E|---------------------------------|---------------------------------|
 | 1 e + a 2 e + a 3 e + a 4 e + a | 1 e + a 2 e + a 3 e + a 4 e + a |
   Every now and then the things I lean on lose their meaning    and I

e|---------------------0h2---------|---------------------------------|
B|-----3-------3-------3---3-------|-----3-----3---------3-----3-----|
G|-----0-------0-----2-----2-------|-----0---------0-----0---------0-|
D|-----------------0---------------|-----2-------2-------0-------0---|
A|-2-------3-------------------0---|-3-------3-------2-------2-------|
E|---------------------------------|---------------------------------|
 | 1 e + a 2 e + a 3 e + a 4 e + a | 1 e + a 2 e + a 3 e + a 4 e + a |
   find myself careening     Down to places where I should not let me

e|---------------------0-----------|-----2---------------3-----------|
B|-----3-----------------0---2---3-|-----3-----3---3-----3-----3---3-|
G|-----0-----0---0-----------------|-----2-------2-------0-------0---|
D|-----2-------2-----2-------------|-0-------0-----------------------|
A|-----------------0-------0---0---|-----------------3-------3-------|
E|-0-------0-----------------------|---------------------------------|
 | 1 e + a 2 e + a 3 e + a 4 e + a | 1 e + a 2 e + a 3 e + a 4 e + a |
   go                                     She's got the power to go where

e|---------------------2-----------|---------------------2-----------|
B|-----3-------3-------3-----------|-----3-------3-------3-----3-----|
G|-----0-------0-------2-----------|-----0-------0-------2-----2-----|
D|-----------------0---------------|-----------------0-------0-------|
A|-2-------3-------------------0---|-2-------3-------------------0---|
E|---------------------------------|---------------------------------|
 | 1 e + a 2 e + a 3 e + a 4 e + a | 1 e + a 2 e + a 3 e + a 4 e + a |
   noone else can find me yes and    silently remind me          Of the

e|-------------------2-------------|-----2-2---2---------2-----2-----|
B|---3-------3-----------3---3-----|-----3---------3-----3---------3-|
G|-------0-------0-----2---------2-|-----2-------2-------2-------2---|
D|-----0-------2---0-----------0---|---------------------------------|
A|-2-------3---------------0-------|-2-------2-----------------------|
E|---------------------------------|-----------------0-------0-------|
 | 1 e + a 2 e + a 3 e + a 4 e + a | 1 e + a 2 e + a 3 e + a 4 e + a |
   happiness   and good times that I know,        you know,      Well I

e|-----2-2---2---------2-2-2-------|
B|-----3---------3-----3-3-3-------|
G|-----2-------2-------2-2-2-------|
D|---------------------------------|
A|-2-------2-----------------------|
E|-----------------0-------0-------|
 | 1 e + a 2 e + a 3 e + a 4 e + a |
  said I just got to know that


VERSE 2(same as verse 1 with one exception)

It isn't what she's got to say, or how she thinks or where she's been
To me the words are nice, the way they

  e|-------0h2p0-----3-2-0---0h2------||
  B|-------3-------3-3-----3-3--------||
  G|-----2-------2-------------------*||
  D|-0--------------------------------||
  A|---------------------------------*||
  E|----------------------------------||
   | 1 e + a 2 e + a 3 e + a 4 e + a  ||
     sound

I like to hear them best that way it doesn't much matter what they mean
She says them mostly just to calm me down

CHORUS

e|---------------------------------|---------------------------------|
B|-----3-----3---------3-----3-----|-----3-----3---------3-------3---|
G|-----2---------2-----2---------2-|-----2---------2-----2-------2---|
D|-----4-------4-------4-------4---|-2---2---2---2-------4-------4---|
A|-----------------2-------2-------|-----------------2---------------|
E|-0-------0-----------------------|-------------------------0-------|
 | 1 e + a 2 e + a 3 e + a 4 e + a | 1 e + a 2 e + a 3 e + a 4 e + a |
Quite a long       long             time             yes  and I feel

e|-------0-------------3-------2---|---------0-------0-0-0---0-------|
B|---------2p0---0-------3-------3-|-----------2p0---3-2-0---0h2-----|
G|-----2-------2-----0-------2-----|---2-----------2-2-----2---------|
D|-------------------------0-------|-----2-2-------------------------|
A|-0-------------------------------|-0---------------0-------0-------|
E|-----------------3---------------|---------------------------------|
 | 1 e + a 2 e + a 3 e + a 4 e + a | 1 e + a 2 e + a 3 e + a 4 e + a |
   fine